Cifra Club

Hazard Profile Part 1

Soft Machine

Cifrado: Principal (guitarra y guitarra eléctrica)
Selo Cifra Club: esta cifra foi revisada para atender aos critérios oficiais da nossa Equipe de Qualidade.
tono: Bb
E|----------------------------------------------------------|
B|----------------------------------------------------------|
G|----------------------------------------------------------|
D|----------8-10-10---------------------8-10-10-------------|
A|-----8h10---------8h10-8h10------8h10---------------8-10--|
E|-8-8-------------------------8-8---------------8-11------/|

At end of organ solo, Repeat 4x:

E|------------------------------------------------|
B|------------------------------------------------|
G|------------------------------------------------|
D|---------8-10-10-8-8--------8-8----8-10-10------|
A|----8h10-------------8-8-10-----10--------------|
E|-11----------------------------------------11-8-|


The beginning of Al's first solo ...

E|---------------------------------------------------------|
B|---------------------------------------------------------|
G|---------------------------------------------------------|
D|--------------------------------------------------8-8----|
A|-------------------------------------------8-8-10-----10-|
E|-8~~~-6-/8-10-10-8-10-10-8--11-6-/8-6-6-/8---------------|

E|-------------------------------------------------|
B|-11------------------11----10--------------------|
G|----10~-8---------8-----12----12-10-12-10-8------|
D|----------10-8-10---------------------------10| 8-|
A|-------------------------------------------------|
E|-------------------------------------------------| ETC.


************************************

| h   Hammer-on
| p   Pull-off
| /   Slide up
| ~   Vibrato
Otros videos de esta canción
    5 exhibiciones
      • ½ Tono
      • A
      • Bb
      • B
      • C
      • Db
      • D
      • Eb
      • E
      • F
      • F#
      • G
      • Ab
    • Agregar a la lista

    Afinação da cifra

    Afinador online

      Ops (: Contenido disponible solo en portugués.
      OK