Cifra Club

Plus Belle Quene Poubelle

Soft Machine

Cifrado: Principal (guitarra y guitarra eléctrica)
Selo Cifra Club: esta cifra foi revisada para atender aos critérios oficiais da nossa Equipe de Qualidade.
tono: E
this is the bass arranged for guitar "Plus Belle Q'uene Poubelle" (1968)

e----------------------------------------------------------------|intro
b----------------------------------------------------------------|
g----------------------------------------------------------------|
d----------------------------------------------------------------|
a----------------------------------------------------------------|
e-0-7-0---7-5-0---7-0---7-5-0---7-0---7-5-0---7-0---7-5-0--------|

e-----------------------------------------------------------------22-| sec.
b--------------------------------------------------------------------|
g--------------------------------------------------------------------|
d--------------------------------------------------------------------|
a--------------------------------------------------------------------|
e-0000000000000000---0-3-3/4-4-4/6---0-3-3/4-4-4/6-------------------|

e-----------------------------------------------------------------|32 sec.
b-----------------------------------------------------------------|
g-----------------------------------------------------------------|
d-----------------------------------------------------------------|
a---2-------------------------------------------------------------|
e-0---3/4-4-4/6---0-3-3-3/4-4-4/5/6---0-3-3/4-4-4/6---0-3-0-4-5-6-|

e------------------------------------------------------------------|42 sec.
b------------------------------------------------------------------|
g------------------------------------------------------------------|
d------------------------------------------------------------------|
a------------------------------------------------------------------|
e-0-3-3/4-4-4/6---0-3-4-5---0-7-5-6-7---0-0--0-3-4-----------------|

e-------------------------------------------------------------------|50 sec.
b-------------------------------------------------------------------|
g-------------------------------------------------------------------|
d-------------------------------------------------------------------|
a---------7-5-4-3---------------------------------------------------|
e-0-3-4-6----------7-5-4-3--0-0-3-3/4-4-4/6-0-7777777---------------|

e-------------------------------------------------------------------|58 sec.
b-------------------------------------------------------------------|
g-------------------------------------------------------------------|
d-------------------------------------------------------------------|
a----------------5-3------------------------------------------------|
e-0-3-3/4-4-4/6-------4-5-6-----------------------------------------|

segue into "why are we sleeping?" (which i will be tabbing soon)
any comments or corrections: *
Otros videos de esta canción
    17 exhibiciones
      • ½ Tono
      • A
      • Bb
      • B
      • C
      • Db
      • D
      • Eb
      • E
      • F
      • F#
      • G
      • Ab
    • Agregar a la lista

    Afinação da cifra

    Afinador online

      Ops (: Contenido disponible solo en portugués.
      OK