Cifra Club

Give It Up

Soil

Cifrado: Principal (guitarra y guitarra eléctrica)
Selo Cifra Club: esta cifra foi revisada para atender aos critérios oficiais da nossa Equipe de Qualidade.
tono: E
Tuning C-g-c-f-a-d

|--------------------------------------------------------------------------------------------------------------------|
|------------------------------------------------4-----6-------------------------------------------------------------|
|---5--5--5--5--5------3--3--3--3--3----------------------5--5--5--5--5------3--3--3--3--3-------8-----10------------|
|------------------------------------------------------------------------------------------------x------x------------|
|------------------------------------------------------------------------------------------------6------8------------|
|--------------------------------------------------------------------------------------------------------------------|

|-----------------------------------------------------------|
|--o-----------------------------------------------------o--|   4X      
|------5--5--5--5--5------3--3--3--3--3------8-----10-------|
|------x--x--x--x--x------x--x--x--x--x -----x------x-------|
|--o---3--3--3--3--3------1--1--1--1--1------6------8----o--|
|-----------------------------------------------------------|

|-------------------------------------------------------------------------------------------------|
|--o-------------------------------------------------------------------------------------------o--|
|-------------------------------------------------------------------------------------------------|
|------0--2--0--1--0-----0--2--0--1--0----------0--2--0--1--0-----0--2--0--1--0----0---0----------|3X
|--o---0--2--0--1--0-----0--2--0--1--0----------0--2--0--1--0-----0--2--0--1--0----0---0-------o--|
|------0--2--0--1--0-----0--2--0--1--0----------0--2--0--1--0-----0--2--0--1--0----0---0----------|

|------------------------------------------------------------------|
|--o------------------------------------------------------------o--|2x
|------------------------------------------------------------------|
|-----10-------------1------------15---------1------15-------------|
|--o--10-------------1------------15---------1------15----------o--|
|-----10-------------1------------15---------1------15-------------|
Otros videos de esta canción
    24 exhibiciones
      • ½ Tono
      • A
      • Bb
      • B
      • C
      • Db
      • D
      • Eb
      • E
      • F
      • F#
      • G
      • Ab
    • Agregar a la lista

    Afinação da cifra

    Afinador online

      Ops (: Contenido disponible solo en portugués.
      OK