Cifra Club

Losing My Mind

SOJA

Chords: Principal (acoustic and electric guitars)
tone: C
Intro

Solo (2X)

E|----------------------|-----------------|
B|----------------------|-----------------|
G|--7---5------------5--|---7---5-7/9-----|
D|----9---7--7-7-7-9----|-----9-----------|
A|----------------------|-----------------|
E|----------------------|-----------------|

Am             G
There's no pictures on the wall
            F
There's no rise and there's
                     Am
No fall, and in the morning,
         G               F
I'm all right, alone without you.
             Am                   G
There's no phones and there's no calls
               F
There's no talking to you at all
             Am
And i don't care,
          G                 F
Late at night when it's not you

             Am     G        F
But when i look out in the rain
                   Am
I think about the past
   G        F
I want it again
                   Am       G
I think about the way you feel
  F                      Am
Inside, i start losing my mind
     G          F
I'm losing my mind

Solo (2x)

E|----------------------|-----------------|
B|----------------------|-----------------|
G|--7---5------------5--|---7---5-7/9-----|
D|----9---7--7-7-7-9----|-----9-----------|
A|----------------------|-----------------|
E|----------------------|-----------------|

          Am             G
There's not formulates plans
            F
There's no way and there's no chance
               Am
It's been too long-
            G          F
And it's all back behind me
            Am              G
There's no going down that road
       F
And i know right where it goes
          Am        G
If i keep walking away,
    F
Nothing reminds me

             Am     G        F
But when i look out in the rain
                   Am
I think about the past
   G        F
I want it again
                   Am       G
I think about the way you feel
  F                      Am
Inside, i start losing my mind
     G          F
I'm losing my mind, my mind, my mind

Solo (2x)

E|----------------------|-----------------|
B|----------------------|-----------------|
G|--7---5------------5--|---7---5-7/9-----|
D|----9---7--7-7-7-9----|-----9-----------|
A|----------------------|-----------------|
E|----------------------|-----------------|

Solo 2 - Substituindo os metais

E|-------------------------|--------------------------|
B|-------------------------|--------------------------|
G|----------5-5------------|-----------5-5-----9-9-5--|
D|--7-7-7-7-----9-9-5-5-7--|---7-7-7-7-----9-9--------|
A|-------------------------|--------------------------|
E|-------------------------|--------------------------|

E|----------------------------|-----------------------|
B|----------------------------|--10-10-8--------------|
G|----------5-5---------------|----------10-9---------|
D|--7-7-7-7-----9-9-----------|-----------------------|
A|------------------10-10-8---|-----------------------|
E|----------------------------|-----------------------|

Após o solo do baixo

E|------------------|-----------------------------|
B|--10-10-8---------|-------8~~----------8--------|
G|----------10-9----|--9~~----------9-10---10-----|
D|------------------|----------10~~---------------|
A|------------------|-----------------------------|
E|------------------|-----------------------------|

E|---------------------------|
B|-----8~~-------------------|
G|--9~~----------------------|
D|-------10~~-7~~--10-9------|
A|----------------------8----|
E|---------------------------|


             Am                   G
There's no fights and there's no tears
            F
There's no need if you're not here
        Am          G           F
And i'm not tha same anyway, anymore
            Am                 G
There's no need to write this song
                    F
'cause there's no changing what's been done,
                 Am             G
And there's no changing what's inside
                F
And it looks like it's gonna storm.


Solo intro acontecendo por trás da próxima estrofe.

             Am     G        F
But when i look out in the rain
                   Am
I think about the past
   G        F
I want it again
                   Am       G
I think about the way you feel
  F                      Am
Inside, i start losing my mind
     G          F
I'm losing my mind
00:00 / 00:00
Other videos of this song
Repeat
Other videos of this song
5.825 views
    • ½ Tone
    • A
    • Bb
    • B
    • C
    • Db
    • D
    • Eb
    • E
    • F
    • F#
    • G
    • Ab
  • Add to list

Afinação da cifra

Afinador online

    00:00 / 00:00
    OK