Cifra Club

Thunderstorms

SOJA

Chords: Principal (acoustic and electric guitars)
tone: C
[Intro]

E|--------------------|--------------------------------------|
B|----------10~-10-8--|------------10~-----------------------|
G|--9-9-7----9~--9-7--|--9-9-9-7----9~-----------------------|
D|--9-9-7-9-----------|--9-9-9-7-9---------------------------|
A|--------9-----------|----------9---------------------------|
E|--------------------|--------------------------------------|

E|--------------------|--------------------------------------|
B|----------10~-10-8--|------------10~-----------------------|
G|--9-9-7----9~--9-7--|--9-9-9-7----9~-----------------------|
D|--9-9-7-9-----------|--9-9-9-7-9---------------------------|
A|--------9-----------|----------9---------------------------|
E|--------------------|--------------------------------------|

E|-----------------------------------------------------------|
B|-------10-10b12r10-8-10-8-10-------------------------------|
G|--9-12-----------------------9-----------------------------|
D|-----------------------------------------------------------|
A|-----------------------------------------------------------|
E|-----------------------------------------------------------|

E|-----------------------------------------------------------|
B|-------10-10b12r10-8-10-8-10-------------------------------|
G|--9-12-----------------------------------------------------|
D|-----------------------------------------------------------|
A|-----------------------------------------------------------|
E|-----------------------------------------------------------|

E|-----------------------------------------------------------|
B|-------10-10b12-12r10-8-8~---------------------------------|
G|--9-12-----------------------------------------------------|
D|-----------------------------------------------------------|
A|-----------------------------------------------------------|
E|-----------------------------------------------------------|

E|-----------------------------------------------------------|
B|----10b12r10---10b12r10---10b12r10b12r10-------------------|
G|--9----------9----------9----------------9-9---------------|
D|-----------------------------------------------------------|
A|-----------------------------------------------------------|
E|-----------------------------------------------------------|

E|-------------------|---------------------------------------|
B|--10b12-10-10-8----|--10b12r10--8b11r8---------------------|
G|----------------9--|-------------------9-9~----------------|
D|-------------------|---------------------------------------|
A|-------------------|---------------------------------------|
E|-------------------|---------------------------------------|

E|--------10-10/12-------------------------------------------|
B|--10/12----------12-8/10--10p8-----------------------------|
G|-------------------------------9-9-------------------------|
D|-----------------------------------------------------------|
A|-----------------------------------------------------------|
E|-----------------------------------------------------------|

E|-------------------|---------------------------------------|
B|-------8-8/10-10~--|--10p8---------------------------------|
G|--9-11-------------|-------9-7-7/9~~-----------------------|
D|-------------------|---------------------------------------|
A|-------------------|---------------------------------------|
E|-------------------|---------------------------------------|

   Em    Bm       Am7             Bm7
I don't know one thing about you not
   Em      Bm7        Am7    Bm7
Knowing a thing about me
 Em        Bm       Am7
Cuz we drop down into all your
    Bm7          Em       Bm7
Thunderstorms and clain it's not
        Am7       Bm7
Your lightning
            Em               Bm7
So now the fries gone in my eyes
 Am7        Bm7
They grow cold for a while
 Em          Bm7      Am7
And i'dont feel your heat
  Em          Bm7
These words have been said
 Am7             Bm7
Over and around it, but
Em       Bm7       Am7             Bm7
I don't hear no talking, you're talking

  C                 Em
I'll be stopping, i'll be starting
 C                Em      G
I'll be wondering why we don't
              C
Know what we do
 C                  Em
I'm a be the same, even if i'm

Walking by my self
 C    Em             G
I'm just wondering why

E|-----------------------|------------------------------------|
B|--10-8-----------------|------------------------------------|
G|-------11b12r11b12r11--|--7/9-7-7---------------------------|
D|-----------------------|----------9p7-----------------------|
A|-----------------------|------------------------------------|
E|-----------------------|------------------------------------|

E|---------------------------|-------------------------------|
B|--12-12b15r12-10-10-10-----|-------------------------------|
G|-----------------------12--|--11h12p11----11-7/9-----------|
D|---------------------------|-----------12------------------|
A|---------------------------|-------------------------------|
E|---------------------------|-------------------------------|

E|-------------------------|---------------------------------|
B|-------9/10-10-----------|---------------------------------|
G|--9/12---------12--------|---------------------------------|
D|-------------------------|---------------------------------|
A|-------------------------|---------------------------------|
E|-------------------------|---------------------------------|

Em  Bm7  Am7
I never ever saw us clearly

And clearly we're both to blame

But silence and progress         

Were my thing                 

And your thing was calling

My name

Now you can see your whole life without me

Quietly in mine felt you

The distances of continents

Phone calls upsetting now

Something's that i guess i, i can't do

[Refrão]

E|-------------------------|---------------------------------|
B|-------------------------|---------------------------------|
G|--9b11r9~~--7/9-9-9-9-9--|---------------------------------|
D|-------------------------|--5/7~~--------------------------|
A|-------------------------|--------5-7b9r7------------------|
E|-------------------------|---------------------------------|

E|---------------|-------------------------------------------|
B|---------------|-------------------------------------------|
G|---------------|----7--7--9b11r9~~-------------------------|
D|--------7/9-9--|--9--9-------------------------------------|
A|--5-5/7--------|-------------------------------------------|
E|---------------|-------------------------------------------|

E|-------------------|---------------------------------------|
B|--8p7-----8p7------|---------------------------------------|
G|-----9-7------9-7--|--9p7--9b11r9~~----7-7/9---------------|
D|-------------------|-----------------9---------------------|
A|-------------------|---------------------------------------|
E|-------------------|---------------------------------------|

E|----------------------|------------------------------------|
B|----12---12--12---12--|----13---13---13---13---------------|
G|--9----9---9----9-----|--9----9----9----9------------------|
D|----------------------|------------------------------------|
A|----------------------|------------------------------------|
E|----------------------|------------------------------------|

E|------------------------------------------------------12~~-|
B|--12/15-15--15\12-12--15\12-12--15\12-12--15\12-12-15------|
G|-----------------------------------------------------------|
D|-----------------------------------------------------------|
A|-----------------------------------------------------------|
E|-----------------------------------------------------------|

E|---------------------|-------------------------------------|
B|--12h13-12-10-12-----|-------------------------------------|
G|-----------------12--|--11-12-11--9-11-9-7--9b11r9~~-------|
D|---------------------|-------------------------------------|
A|---------------------|-------------------------------------|
E|---------------------|-------------------------------------|

E|-----------------------------------------------------------|
B|-----------------------------------------------------------|
G|--9-7---------7-9------------------------------------------|
D|------10-9--9-----9--9-7----9p7-----7/9\7------------------|
A|-------------------------10-----10-------------------------|
E|-----------------------------------------------------------|

Em  Bm7  Am7
My name remains prisoner

Trapped and my world is gone

And i'm the only one who still lives here

And i've got all the light storms

So you can stop and visit me in my cell

And we can talk if we've got the time

And you can start to go on your way

Cause' i believe i found, i found mine

  C                 Em
I'll be stopping, i'll be starting
 C                Em      G
I'll be wondering why we don't
              C
Know what we do
 C                  Em
I'm a be the same, even if i'm

Walking by my self
 C    Em             G
I'm just wondering why we don't know


  C                 Em
I'll be stopping, i'll be starting
 C                Em      G
I'll be wondering why we don't
              C
Know what we do
 C                  Em
I'm a be the same, even if i'm

Walking all alone
 C    Em             G
I'm just wondering why
00:00 / 00:00
Other videos of this song
Repeat
Other videos of this song
3.674 views
    • ½ Tone
    • A
    • Bb
    • B
    • C
    • Db
    • D
    • Eb
    • E
    • F
    • F#
    • G
    • Ab
  • Add to list

Afinação da cifra

Afinador online

    00:00 / 00:00
    OK