Cifra Club

Barbès-Clichy

Mano Solo

Cifrado: Principal (guitarra y guitarra eléctrica)
Selo Cifra Club: esta cifra foi revisada para atender aos critérios oficiais da nossa Equipe de Qualidade.
tono: Em
 écouter l'intro
E|-----------------------------------------------------------------------------------|
B|-------------------5---------8-8-8-8-8-7-7-8-10-10/12---10-------10----------------|
G|-------0-4-4---4/5---2---0---9-9-9-9-9-8-------------------12-11-----12-11-12--8-8-|
D|-----2-----------------2-----------------------------------------------------------|
A|-----------------------------------------------------------------------------------|
E|--0--------------------------------------------------------------------------------|


E|--------------------------------7--7p8t7----10-8-7----8-7----------------------------|
B|-----------------------7-7-8-10----------10--------10-----10-8-7---10-8---7-10-8-7---|
G|----------------9-9--8-------------------------------------------------------------9-|
D|---------7-9-10----------------------------------------------------------------------|
A|--7-9-10-----------------------------------------------------------------------------|
E|-------------------------------------------------------------------------------------|



E|----------------------------|
B|--7-------------------------|
G|----9-8--------------9--9-9-|
D|---------9-7-9--9/10--------|
A|----------------------------|
E|----------------------------|



Couplet/Refrain:

 écouter le couplet
E|-------------------------------------------------------------------|
B|---------0-------1-------1-------0-------0-------1-------1-------0-|
G|-------0-------2-------0-------2-------0-------2-------0-------2---|
D|-----2-------2-------2-------1-------2-------2-------2-------1-----|
A|-----------0-------3-------2---------------0-------3-------2-------|
E|---0-------------------------------0-------------------------------|
   Em       Am      C       B7      Em      Am      C       B7




[Solo]

 écouter le solo
E|-------------7-7-10-8---7-8-10-8-7p8t7------7-7-7-10-10-8-8-7-7--------7p8t7--------|
B|--8-7-10-8------------------------------10-8-8-8-8-8--8----------10-10--------10-8--|
G|------------------------------------------------------------------------------------|
D|------------------------------------------------------------------------------------|
A|------------------------------------------------------------------------------------|
E|------------------------------------------------------------------------------------|


E|--------------------------------|
B|--7-10-8-7----------------------|
G|-----------9-8------------------|
D|---------------9-9-9-9-7--------|
A|-------------------------10-9-7-|
E|--------------------------------|
Otros videos de esta canción
    4 exhibiciones
      • ½ Tono
      • Am
      • Bbm
      • Bm
      • Cm
      • C#m
      • Dm
      • Ebm
      • Em
      • Fm
      • F#m
      • Gm
      • G#m
    • Agregar a la lista

    Afinação da cifra

    Afinador online

      Ops (: Contenido disponible solo en portugués.
      OK