Cifra Club

Back To You

Something For Kate

Cifrado: Principal (guitarra y guitarra eléctrica)
tono: C
(intro)
E|--------------------------|---0-|
B|--------------------------|-3---|
G|-----------------0-----0-:|-----|
D|---3/5---3-----3-----3---:|-----|
A|-0-----0---4-5-----5------|-----|
E|--------------------------|-----|

E|-12-12-12-12-12/13\12-10-------------|
B|-------------------------13-13-12-13-|
G|-------------------------------------|
D|-------------------------------------|
A|-------------------------------------|
E|-------------------------------------|

E|---------------------------------|
B|---------------------------------|
G|-5-5-5-5-5--5-5-5-5-5--2-2-2-2-2-|
D|-5-5-5-5-5--5-5-5-5-5--2-2-2-2-2-|
A|-3-3-3-3-3--3-3-3-3-3--0-0-0-0-0-|
E|---------------------------------|
what you want to know . . .

E|-0-0-----0-------3---3-3-3-3-|
B|-1---1-----1-----0---0-1-1-0-|
G|-2-----2-----0---0---0-0-0-0-|
D|-2-----2-------0---0---------|
A|-0-----0-------2---2---------|
E|---------------3---3---------|

(intro)

E|-10-12-10-12-10-12-10-10-12-10-12-10-12-10-|
B|-------------------------------------------|
G|-7-----------------------------------------|
D|-7---------------------7--------10-----5---|
A|-5---------------------7--------10-----5---|
E|-----------------------5--------8------3---|
sweet thing. . .

E|-10-12-10-12-10-12-10-10-12-10-12-10-12-10-|
B|-------------------------------------------|
G|-7-----------------------------------------|
D|-7----------------------7-------9-------10-|
A|-5----------------------7-------9-------10-|
E|------------------------5-------7-------8--|

E|-7-7-7-7-7-7-7-7-5-5-5-5-5-5-|
B|-----------------------------|
G|-5---------------2-----------|
D|-5---------------2-----------|
A|-3---------------0-----------|
E|-----------------------------|

E|-1--0--1--0--1--0--0--2-|
B|-1--1--1--1--1--1--1--3-|
G|-2--0--2--0--2--0--2--2-|
D|-3--2--3--2--3--2--2--0-|
A|-3--3--3--3--3--3--0----|
E|-1-----1-----1----------|
one of these days

E|---------------------------------|
B|---------------------------------|
G|-5-5-5-5-5--5-5-5-5-5--2-2-2-2-2-|
D|-5-5-5-5-5--5-5-5-5-5--2-2-2-2-2-|
A|-3-3-3-3-3--3-3-3-3-3--0-0-0-0-0-|
E|---------------------------------|
I find myself talking to ghosts

The bit in here is just a mix of variations of everything.

back to you . . .
E|-------------|
B|-1-3/5-3-1-1-|
G|-----------0-|
D|-----------2-|
A|-----------3-|
E|-------------|
00:00 / 00:00
Otros videos de esta canción
Repetir
Otros videos de esta canción
Composición de Something for Kate
Colaboración y revisión:
  • Jefferson Sousa
41 exhibiciones
    • ½ Tono
    • A
    • Bb
    • B
    • C
    • Db
    • D
    • Eb
    • E
    • F
    • F#
    • G
    • Ab
  • Agregar a la lista
    00:00 / 00:00
    OK