Cifra Club

Photograph

Something For Kate

Cifrado: Principal (guitarra y guitarra eléctrica)
Selo Cifra Club: esta cifra foi revisada para atender aos critérios oficiais da nossa Equipe de Qualidade.
tono: D
(intro / verso 1)
E|--------------------------------------------------------------------
B|--------------------------------------------------------------------
G|--------------------------------------------------------------------
D|--5-5-5-------4-4---------------------------------------------------
A|--------5-5-5-------5----2-4-5-4---2-4-5-4--------------------------
E|------------------5----5---------5----------------------------------

E|--------------------------------------------------------------------
B|--------------------------------------------------------------------
G|--------------------------------------------------------------------
D|--5-5-5-------4-4----------------------------2-4--------------------
A|--------5-5-5-------5----2-4-5-4---2-4-5-4-5------------------------
E|------------------5----5---------5----------------------------------

E|--------------------------------------------------------------------
B|--------------------------------------------------------------------
G|--------------------------------------------------------------------
D|--5-5-5-------4-4---------------------------------------------------
A|--------5-5-5-------5---4-5-4---2-4-2-------------------------------
E|------------------5-------------------------------------------------

E|------------------
B|------------------
G|------------------
D|--4-2---2-4-2-----
A|------5-------5---
E|------------------

E|--------------------------------------------------------------------
B|--------------------------------------------------------------------
G|--------------------------------------------------------------------
D|--5-5-5-------4-4---------------------------------------------------
A|--------5-5-5-------5----2-4-5-4---2-4-5-4--------------------------
E|------------------5----5---------5----------------------------------

E|--------------------------------------------------------------------
B|--------------------------------------------------------------------
G|--------------------------------------------------------------------
D|--5-5-5-------4-4----------------------------2-4--------------------
A|--------5-5-5-------5----2-4-5-4---2-4-5-4-5------------------------
E|------------------5----5---------5----------------------------------

E|--------------------------------------------------------------------
B|--------------------------------------------------------------------
G|--------------------------------------------------------------------
D|--5-5-5-------4-4---------------------------------------------------
A|--------5-5-5-------5---4-5-4---2-4-2-------------------------------
E|------------------5-------------------------------------------------

E|------------------
B|------------------
G|------------------
D|--4-2---2-4-2-----
A|------5-------5---
E|------------------
Otros videos de esta canción
    39 exhibiciones
      • ½ Tono
      • A
      • Bb
      • B
      • C
      • Db
      • D
      • Eb
      • E
      • F
      • F#
      • G
      • Ab
    • Agregar a la lista

    Afinação da cifra

    Afinador online

      Ops (: Contenido disponible solo en portugués.
      OK