Cifra Club

Picards Lament

Something For Kate

Cifrado: Principal (guitarra y guitarra eléctrica)
Selo Cifra Club: esta cifra foi revisada para atender aos critérios oficiais da nossa Equipe de Qualidade.
tono: D
(verso)
E|---||----------------------------------------|-------------------------
B|---||----0---0---0---0---0---0---0---0-------|-------------------------
G|---||*---4---4---4---4---4---4---4---4-------|-------------------------
D|---||*---4---4---4---4---4---4---4---4---2---|-------------------------
A|---||------------------------------------2---|-------------------------
E|---||----2---2---2---2---4---4---3---3---0---|-------------------------

(refrão)
E|-----------------------------------|-----------------------------------
B|-----------------------------------|-----------------------------------
G|---4---4---2---2---2---9---9---9---|-----------------------------------
D|---4---4---2---2---2---9---9---9---|-----------------------------------
A|---2---2---0---0---0---7---7---7---|-----------------------------------
E|-----------------------0---0---0---|-----------------------------------

E|-----------4---------------4---------------5-----------2---------------
B|-------5-------5-------5-------5-------5-----------3-------3-----------
G|---4---------------4---------------6-----------2---------------2-------
D|-----------------------------------------------------------------------
A|-----------------------------------------------------------------------
E|-----------------------------------------------------------------------
 
(ponte)
E|---|----------------------------------------||-------------------------
B|---|----------------------------------------||-------------------------
G|---|---3---3---3---3---4---4---1---1---1---*||-------------------------
D|---|---4---4---4---4---6---6---2---2---2---*||-------------------------
A|---|---4---4---4---4---6---6---2---2---2----||-------------------------
E|---|----------------------------------------||-------------------------
Otros videos de esta canción
    14 exhibiciones
      • ½ Tono
      • A
      • Bb
      • B
      • C
      • Db
      • D
      • Eb
      • E
      • F
      • F#
      • G
      • Ab
    • Agregar a la lista

    Afinação da cifra

    Afinador online

      Ops (: Contenido disponible solo en portugués.
      OK