Cifra Club

Prick

Something For Kate

Cifrado: Principal (guitarra y guitarra eléctrica)
Selo Cifra Club: esta cifra foi revisada para atender aos critérios oficiais da nossa Equipe de Qualidade.
tono: D
E|---||--------------12--------|---0--------||---------------------------
B|---||------------------------|---0--------||---------------------------
G|---||*---14--------14--------|---0-------*||---------------------------
D|---||*---14---14---14---14---|---9-h10---*||---------------------------
A|---||----0----0----0----0----|---10-------||---------------------------
E|---||----12---12---12---12---|------------||---------------------------

E|-----------0-----------0-----------0-----------------------------------
B|-------0-----------0-----------0-----------0---------------------------
G|---5-----------4-----------0-------------------------------------------
D|---------------------------------------0-----------0---2---0-----------
A|-----------------------------------------------3---------------3-------
E|-----------------------------------------------------------------------

E|---------------0----||-------------------------------------------------
B|-----------0---0----||-------------------------------------------------
G|-------5-------5---*||-------------------------------------------------
D|---5-----------5---*||-------------------------------------------------
A|---------------3----||-------------------------------------------------
E|--------------------||-------------------------------------------------

Otros videos de esta canción
    12 exhibiciones
      • ½ Tono
      • A
      • Bb
      • B
      • C
      • Db
      • D
      • Eb
      • E
      • F
      • F#
      • G
      • Ab
    • Agregar a la lista

    Afinação da cifra

    Afinador online

      Ops (: Contenido disponible solo en portugués.
      OK