Cifra Club

Roll Credit

Something For Kate

Cifrado: Principal (guitarra y guitarra eléctrica)
Selo Cifra Club: esta cifra foi revisada para atender aos critérios oficiais da nossa Equipe de Qualidade.
tono: G
(intro)
--|---------------------------------------------1---|-------------------------
--|---1---3-----1---------------1-----1-------1---1-|----1---3-----1----------
--|-----0---0-----0-------0---0-----0-------0-------|------0---0-----0--------
--|-----------2-----2---2-----------------3---------|------------2-----2---2--
--|-3-----------------------0-----3-----3-----------|--3----------------------
--|-------------------0-----------------------------|--------------------0----

----------------1-1-1-1-1-1|--------------------------------------------------
------1-----1---1-1-1-1-1-1|--------------------------------------------------
-0------0-----0-0-0-0-0-0-0|--------------------------------------------------
----------------3-3-3-3-3-3|--------------------------------------------------
---0------3-----3-3-3-3-3-3|--------------------------------------------------
---------------------------|--------------------------------------------------

(teclado)
-|12----12-------12----12------12----12-------------12---|--------------------
-|---15----15-------15----15------15----15-------15----15|--------------------
-|--------------------------------------------12---------|--------------------
-|-------------------------------------------------------|--------------------
-|-------------------------------------------------------|--------------------
-|-------------------------------------------------------|--------------------

(verso)
-|0--0--0--0--0--0--------0--0--0--0--1--1--1--1|-----------------------------
-|1--1--3--3--1--1--0--0--1--1--1--1--1--1--1--1|-----------------------------
-|0--0--0--0--0--0--0--0--0--0--0--0--2--2--2--2|-----------------------------
-|2--2--2--2--2--2--2--2--2--2--2--2--3--3--3--3|-----------------------------
-|3--3--3--3--3--3--x--x--0--0--3--3--3--3--3--3|-----------------------------
-|------------------0--0------------------------|-----------------------------

(riff 2)
-|-4-4-4-4-4-4--3-3-3--1-1--4-4-4-4-4-|---------------------------------------
-|-4-4-4-4-4-4--4-4-4--1-1--4-4-4-4-4-|---------------------------------------
-|-5-5-5-5-5-5--5-5-5--2-2--5-5-6-6-6-|---------------------------------------
-|-6-6-6-6-6-6--5-5-5--3-3--6-6-6-6-6-|---------------------------------------
-|-6-6-6-6-6-6--3-3-3--3-3--6-6-4-4-4-|---------------------------------------
-|-4-4-4-4-4-4---------1-1--4-4-4-4-4-|---------------------------------------

(riff 3)
-|-3-3-3-3-3-3-3-3--1-1-1-1--4-4-4-4--1-1-1-1-------------------------|-------
-|-4-4-4-4-4-4-4-4--1-1-1-1--4-4-4-4--2-2-2-2-------------------------|-------
-|-5-5-5-5-5-5-5-5--1-1-1-1--5-5-5-5--3-3-3-3--3-3-3-3-1-1-1-1-1-1-0-0|-------
-|-5-5-5-5-5-5-5-5--3-3-3-3--6-6-6-6--3-3-3-3--1-1-1-1-3-3-3-3-3-3-3-3|-------
-|-3-3-3-3-3-3-3-3--3-3-3-3--6-6-6-6--1-1-1-1--3-3-3-3-4-4-4-4-4-4-4-4|-------
-|-3-3-3-3-3-3-3-3--1-1-1-1--4-4-4-4----------------------------------|-------

-|-1-1-1-1-1-1-1-1-1-1-1-1-1-1-1-1-1-1-1--------------------------------------
-|-1-1-1-1-1-1-1-1-1-1-2-2-2-2-2-2-1-1-1--------------------------------------
-|-1-1-1-1-1-1-1-1-1-1-3-3-3-3-3-3-3-3-3-3-3-3-3-3-3-1-1-1-1-1-1-1-1-1-1-1----
-|-3-3-3-3-3-3-3-3-3-3-3-3-3-3-3-3-3-3-3-1-1-1-1-1-1-1-1-1-3-3-3-3-3-3-3-3----
-|-3-3-3-3-3-3-3-3-3-3-1-1-1-1-1-1-1-1-1-3-3-3-3-3-3-3-3-3-4-4-4-4-4-4-4-4----
-|-1-1-1-1-1-1-1-1-1-1--------------------------------------------------------

----------------------------|-------------------------------------------------
----------------------------|-------------------------------------------------
-1---0-0-0-0-0-0-0-0-0-0-0-0|-------------------------------------------------
-3---3-3-3-3-3-3-3-3-3-3-3-3|-------------------------------------------------
-4---4-4-4-4-4-4-4-4-4-4-4-4|-------------------------------------------------
----------------------------|-------------------------------------------------

(solo)
-|-0-0-0-0-0---0-0--------------|------8--------------------------------------
-|-1-1-3-3-3-/-5-5-3h5p3---3----|5-6-5---8----------------------6p5---8p5-----
-|-0-0-0-0-0---0-0-------5---5--|----------9------------------------5-----5---
-|-2-2-2-2---------------------5|------------10-----------10------------------
-|-3-3-3-3----------------------|-----------------7-8-/-10--------------------
-|------------------------------|---------------------------------------------

-10|-10-12-------10--------8-----------------1-|--------------------------|---
---|-------13-------13-------8-------5-5-5---1-|--------------------------|---
---|----------12-------12------9-----5-5-5---0-|-------5-5-7/9\7----------|---
---|-----------------------------10--5h7p5---3-|--2/3/5-----------5h7p5-3-|---
---|-----------------------------------------3-|--------------------------|---
---|-------------------------------------------|--------------------------|---

(riff 4)
-|-------------------------------------|--|-----------------------------------
-|-------------------------------------|--|-----------------------------------
-|-3-3-3-3-3-3-1-1-1-1-1-1-1-1-1-0-0-0-|--|-3-3-3-3-3-3-1-1-1-1-1-1-1-1-1-1---
-|-1-1-1-1-1-1-1-1-1-3-3-3-3-3-3-3-3-3-|x3|-1-1-1-1-1-1-1-1-1-3-3-3-3-3-3-3---
-|-3-3-3-3-3-3-3-3-3-4-4-4-4-4-4-4-4-4-|--|-3-3-3-3-3-3-3-3-3-4-4-4-4-4-4-4---
-|-------------------------------------|--|-----------------------------------

--------------------------|---------------------------------------------------
--------------------------|---------------------------------------------------
-1-1-1-0-0-0-0-0-0-0-0-0-0|---------------------------------------------------
-3-3-3-3-3-3-3-3-3-3-3-3-3|---------------------------------------------------
-4-4-4-4-4-4-4-4-4-4-4-4-4|---------------------------------------------------
--------------------------|---------------------------------------------------
Otros videos de esta canción
    16 exhibiciones
      • ½ Tono
      • A
      • Bb
      • B
      • C
      • Db
      • D
      • Eb
      • E
      • F
      • F#
      • G
      • Ab
    • Agregar a la lista

    Afinação da cifra

    Afinador online

      Ops (: Contenido disponible solo en portugués.
      OK