Cifra Club

Sleep Is Worth The Wait

Something For Kate

Cifrado: Principal (guitarra y guitarra eléctrica)
Selo Cifra Club: esta cifra foi revisada para atender aos critérios oficiais da nossa Equipe de Qualidade.
tono: D
(intro / verso)
E|---||---------0-----------0-----------0--------0------||---------------
B|---||---------5-----------5-----------5--------5------||---------------
G|---||*-----4-----4-----4-----4-----4-----------4-----*||---------------
D|---||*--6-----------5-----------4--------4--4-----4--*||---------------
A|---||-------------------------------------------------||---------------
E|---||-------------------------------------------------||---------------

E|-------------------------------------||--0h7--7--7--6--6--5--5---||----
B|-------------------------------------||--5----5--5--5--5--5--5---||----
G|---4--4--/--7--7--9--9--------------*||--4----4--4--4--4--4--4--*||----
D|---x--x-----x--x--x--x--------------*||-------------------------*||----
A|---2--2--/--5--5--7--7---------------||--------------------------||----
E|---0--0-----0--0--8--8--3--3--2--0---||--------------------------||----

E|----------------------------------------------||-----------------------
B|----------------------------------------------||-----------------------
G|---------------------------------------------*||-----------------------
D|---0--0--0--0--0--0--0--0--2--2--2--5--5--5--*||-----------------------
A|---2--2--2--5--4--4--4--4--2--2--2--7--7--7---||-----------------------
E|---3--3--3--3--3--5--5--5--0--0--0--8--8--8---||-----------------------

E|---------------------------------------------------------------||------
B|---------------------------------------------------------------||------
G|---------------------------------------------------------------||------
D|---0--0--0--0--0--0--2--2--2--5--5--5--0---0---0---0---0---0---||------
A|---2--2--2--4--4--4--2--2--2--7--7--7--10--10--10--10--10--10--||------
E|---3--3--3--5--5--5--0--0--0--8--8--8--10--10--9---9---8---8---||------
Otros videos de esta canción
    10 exhibiciones
      • ½ Tono
      • A
      • Bb
      • B
      • C
      • Db
      • D
      • Eb
      • E
      • F
      • F#
      • G
      • Ab
    • Agregar a la lista

    Afinação da cifra

    Afinador online

      Ops (: Contenido disponible solo en portugués.
      OK