Cifra Club

Slow

Something For Kate

Cifrado: Principal (guitarra y guitarra eléctrica)
Selo Cifra Club: esta cifra foi revisada para atender aos critérios oficiais da nossa Equipe de Qualidade.
tono: E
E|---||------------------------|-----------------------|-----------------
B|---||------------------------|-----------------------|-----------------
G|---||*-----------4-----------|-----------------------|-----------------
D|---||*-------4-----------4---|-----------4-----------|-----------------
A|---||----2-----------2-------|-------2-----------2---|-----------------
E|---||------------------------|---4-----------4-------|-----------------

E|--------------------------------||-------||----------------------------
B|--------------------------------||-------||----------------------------
G|-------------------------------*||-------||----------------------------
D|----------------/6-------6---6\*||-------||----------------------------
A|-------2------------------------||-------||----------------------------
E|---0-------0-----0---0----------||-------||----------------------------

E|-----------------------|-----------------------|-----------------------
B|-----------------------|-----------------------|-----------------------
G|-----------4-----------|-----------------------|-----------------------
D|-------4-----------4---|-----------4-----------|-----------------------
A|---2-----------2-------|-------2-----------2---|-----------------------
E|-----------------------|---4-----------4-------|-----------------------

E|-------------------------------------|-----------------------|---------
B|-------------------------------------|-----------------------|---------
G|-------------------------------------|-----------------------|---------
D|-------------------------------------|-----------1-----------|---------
A|-------2----/7-------6---6h7p6-------|-------2-----------2---|---------
E|---0-------0-----0---------------7---|---2-----------2-------|/4-------

E|------------------------|-------------------------------||-------------
B|------------------------|-------------------------------||-------------
G|------------------------|-----------1---2-------2---2---||-------------
D|------------4-----------|-------4-------4---------------||-------------
A|--------2-----------2---|---0---0-------0---0-----------||-------------
E|---/4-----------4-------|-------------------------------||-------------

E|-----------------------------------------------------------------------
B|-----------------------------------------------------------------------
G|-----------------------------------------------------------------------
D|-----------------------------------------------------------------------
A|-----------------------------------------------------------------------
E|-----------------------------------------------------------------------

E|---||--------0---0---------------------4---5---5---5---|---------------
B|---||--------0-------0-----------------4---5---5---5---|---------------
G|---||*-------3-----------3-------------5---6---6---6---|---------------
D|---||*-------4---------------4-------------7---7---7---|---------------
A|---||--------4-----------------------------7---7---7---|---------------
E|---||--------2-------------------2/4-------5---5---5---|---------------
                      I want too much....
E|---0---0-------------------0---------------0---0----||-----------------
B|---0-----------0-----------0-----------0---0---0----||-----------------
G|---8-------8-----------8---8---9-------9---9---9---*||-----------------
D|---9-----------------------9-----------9---9---9---*||-----------------
A|---7---------------7-------7-------7---7---7---7----||-----------------
E|---0-----------------------0------------------------||-----------------

E|-----------------------------------------------------------------------
B|-----------------------------------------------------------------------
G|-----------------------------------------------------------------------
D|---2---2---2---2-------------------------------------------------------
A|---2---2---2---2-------------------------------------------------------
E|---0---0---0---0-------------------------------------------------------

      (ponte)                                             (4x)
E|---||--------------------x---x----------------------------||-----------
B|---||--------------------x---x----------------------------||-----------
G|---||*---6---6---6---6---x---x---------------4---4---4---*||-----------
D|---||*---6---6---6---6---x---x-----------6---4---4---4---*||-----------
A|---||----4---4---4---4---x---x-------4-------2---2---2----||-----------
E|---||--------------------x---x---6------------------------||-----------
                                             (4x)
E|---||-----------------------------------------||-----------------------
B|---||-----------------------------------------||-----------------------
G|---||*---4---4---4---4-----------------------*||-----------------------
D|---||*---4---4---4---4-----------4---5---5---*||-----------------------
A|---||----2---2---2---2-------2-------5---5----||-----------------------
E|---||--------------------4-----------3---3----||-----------------------
          I never asked you for much.....
                                                    CODA
E|---------------------------------------------------||------------------
B|---------------------------------------------------||------------------
G|---------------------------------------------------||------------------
D|---------------------------------------------------||------------------
A|---------------------------------------------------||------------------
E|---------------------------------------------------||------------------
                                                       (4x)
E|--------------------------------------------------------||-------------
B|--------------------------------------------------------||-------------
G|---4---4---4---------------9---9---8---9---8---9---8---*||-------------
D|---4---4---4---6---6---6---9---9---9---9---9---9---9---*||-------------
A|---2---2---2---6---6---6---7---7---7---7---7---7---7----||-------------
E|---------------4---4---4---0---0---0---0---0---0---0----||-------------
    would you....

(outro)
E|---0---0-------------------------4---5---5---5---0---||----------------
B|---0-------0---------------------4---5---5---5---9---||----------------
G|---3-----------3-----------------5---6---6---6---9---||----------------
D|---4---------------4-----------------7---7---7---9---||----------------
A|---4---------------------------------7---7---7---7---||----------------
E|---2-------------------2/4---4-------5---5---5---0---||----------------

Otros videos de esta canción
    32 exhibiciones
      • ½ Tono
      • A
      • Bb
      • B
      • C
      • Db
      • D
      • Eb
      • E
      • F
      • F#
      • G
      • Ab
    • Agregar a la lista

    Afinação da cifra

    Afinador online

      Ops (: Contenido disponible solo en portugués.
      OK