Cifra Club

Song For a Sleepwalker

Something For Kate

Cifrado: Principal (guitarra y guitarra eléctrica)
Selo Cifra Club: esta cifra foi revisada para atender aos critérios oficiais da nossa Equipe de Qualidade.
tono: C
(intro)
     1   +   2   +   3   +   4   +    |  1   +   2   +   3   +   4   +    |
e3|--0-----------0-0-0-------0---0-0--|--0--------------------------------|
b3|--1-----1-1---1-1-1-----1-1---1-1--|--1-------1---------1-----0--------|
g3|--0-----0-0---0-0-0h2---2-2p0-0-0--|--2-------2---------2-----0--------|
d3|--0h2---2-2p0-0-0-3-----3-3---3-3--|--2---------------2-2-----0--------|
a3|--3-----3-----3-3-3-----3-3---3-3--|--0---------------0-------x--------|
e3|--3-----------3-3------------------|--------------------------3--------|

     1   +   2   +   3   +   4   +    |  1   +   2   +   3   +   4   +    |
e3|--0-----------0-0-0-------0---0-0--|--0--------------------------------|
b3|--1-----1-1---1-1-1-----1-1---1-1--|--1-/-3-/-5-\-3-----1-----0--------|
g3|--0-----0-0---0-0-0h2---2-2p0-0-0--|--0---0---0---0-----0-----0--------|
d3|--0h2---2-2p0-0-0-3-----3-3---3-3--|--2-/-3-/-5-\-3-----2-----0--------|
a3|--3-----3-----3-3-3-----3-3---3-3--|--0-----------------------x--------|
e3|--3-----------3-3------------------|--------------------------3--------|

     1   +   2   +   3   +   4   +    |  1   +   2   +   3   +   4   +    |
e3|--0-----------0-0-0-------0---0-0--|--0--------------------------------|
b3|--1-----1-1---1-1-1-----1-1---1-1--|--1-/-3-/-5-\-3-----1-----0--------|
g3|--0-----0-0---0-0-0h2---2-2p0-0-0--|--0---0---0---0-----0-----0--------|
d3|--0h2---2-2p0-0-0-3-----3-3---3-3--|--2-/-3-/-5-\-3-----2-----0--------|
a3|--3-----3-----3-3-3-----3-3---3-3--|--0-----------------------x--------|
e3|--3-----------3-3------------------|--------------------------3--------|

     1   +   2   +   3   +   4   +    |  1   +   2   +   3   +   4   +    |
e3|--0-----------0-0-0-------0---0-0--|--0--------------------------------|
b3|--1-----1-1---1-1-1-----1-1---1-1--|--1-/-3-/-5-\-3---0~---------------|
g3|--0-----0-0---0-0-0h2---2-2p0-0-0--|--0---0---0---0---0~---------------|
d3|--0h2---2-2p0-0-0-3-----3-3---3-3--|--2-/-3-/-5-\-3---2~---------------|
a3|--3-----3-----3-3-3-----3-3---3-3--|--0---------------2~---------------|
e3|--3-----------3-3------------------|------------------0~---------------|

     1   +   2   +   3   +   4   +    |
e3|--0~-------------------------------|
b3|--1~-------------------------------|
g3|--2~--------------0~---------------|
d3|--3~--------------0~---------------|
a3|--3~--------------3---2---0---2----|
e3|------------------3----------------|

(verso)
                                              (odd 3/4 bar)
     1   +   2   +   3   +   4   +    |  1   +   2   +   3   +   |
e3|-----------------------------------|--0-----------------------|
b3|--3~-------------------------------|--0-------1---------------|
g3|--0~-------------------------------|--0-------2-------0-------|
d3|--2~-------------------------------|--2-------3-------0-------|
a3|--3~-------------------------------|--2-------3-------x-------|
e3|-----------------------------------|--0-------1-------3-------|

     1   +   2   +   3   +   4   +    |  1   +   2   +   3   +   4   +   |
e3|-----------------------------------|----------0-----------------------|
b3|--3~-------------------------------|----------0-------1---------------|
g3|--0~-------------------------------|--0-------0-------2-------0-------|
d3|--2~-------------------------------|--0-------2-------3-------0-------|
a3|--3~-------------------------------|--x-------2-------3-------x-------|
e3|-----------------------------------|--3-------0-------1-------3h5p3---|

     1   +   2   +   3   +   4   +    |  1   +   2   +   3   +   4   +   |
e3|----------0---------------0--------|--------------------------0-------|
b3|--3~--------3-----1---1---1--------|--------------3-------------3-----|
g3|--2~--2-----------2---2---2--------|--------------2---------------2---|
d3|--0~--------------2---2---2--------|--------------3---------------3---|
a3|--x~--------------0----------------|--1-------------------1-----------|
e3|--2--------------------------------|----------------------------------|

     1   +   2   +   3   +   4   +    |  1   +   2   +   3   +   4   +   |
e3|----------0---------------0--------|--------------0-----------0-------|
b3|--3~--3---3---3---1---1---1--------|--1-----------1-----------1-------|
g3|--2~--2---2---2---2---2---2--------|--2-----------2-----------2-------|
d3|--0~--0-------0---2---2---2--------|--3-----------3-----------3-------|
a3|--x~--------------0----------------|--3-----------3-----------3-------|
e3|--2--------------------------------|----------------------------------|

     1   +   2   +   3   +   4   +    |
e3|-----------------------------------|
b3|--0-------0-------0~---------------|
g3|--0-------0-------0~---------------|
d3|--0-------0-------0~--0---0---0----|
a3|--x-------x-------3---2---0---2----|
e3|--3-------3-------3~--3---3---3----|

(refrão)
     1   +   2   +   3   +   4   +    |  1   +   2   +   3   +   4   +    |
e3|--0-----------0-0-0-------0---0-0--|--0--------------------------------|
b3|--1-----1-1---1-1-1-----1-1---1-1--|--1-/-3-/-5-\-3-----1-----0--------|
g3|--0-----0-0---0-0-0h2---2-2p0-0-0--|--0---0---0---0-----0-----0--------|
d3|--0h2---2-2p0-0-0-3-----3-3---3-3--|--2-/-3-/-5-\-3-----2-----0--------|
a3|--3-----3-----3-3-3-----3-3---3-3--|--0-----------------------x--------|
e3|--3-----------3-3------------------|--------------------------3--------|

     1   +   2   +   3   +   4   +    |  1   +   2   +   3   +   4   +    |
e3|--0-----------0-0-0-------0---0-0--|--0--------------------------------|
b3|--1-----1-1---1-1-1-----1-1---1-1--|--1-/-3-/-5-\-3-----1-----0--------|
g3|--0-----0-0---0-0-0h2---2-2p0-0-0--|--0---0---0---0-----0-----0--------|
d3|--0h2---2-2p0-0-0-3-----3-3---3-3--|--2-/-3-/-5-\-3-----2-----0--------|
a3|--3-----3-----3-3-3-----3-3---3-3--|--0-----------------------x--------|
e3|--3-----------3-3------------------|--------------------------3--------|

     1   +   2   +   3   +   4   +    |  1   +   2   +   3   +   4   +    |
e3|--0-----------0-0-0-------0---0-0--|--0--------------------------------|
b3|--1-----1-1---1-1-1-----1-1---1-1--|--1-/-3-/-5-\-3---0~---------------|
g3|--0-----0-0---0-0-0h2---2-2p0-0-0--|--0---0---0---0---0~---------------|
d3|--0h2---2-2p0-0-0-3-----3-3---3-3--|--2-/-3-/-5-\-3---2~---------------|
a3|--3-----3-----3-3-3-----3-3---3-3--|--0---------------2~---------------|
e3|--3-----------3-3------------------|------------------0~---------------|

     1   +   2   +   3   +   4   +    |
e3|--0~-------------------------------|
b3|--1~-------------------------------|
g3|--2~--------------0~---------------|
d3|--3~--------------0~---------------|
a3|--3~--------------3---2---0---2----|
e3|------------------3----------------|

(verso 2)

(refrão 2)
     1   +   2   +   3   +   4   +    |  1   +   2   +   3   +   4   +    |
e3|--0-----------0-0-0-------0---0-0--|--0--------------------------------|
b3|--1-----1-1---1-1-1-----1-1---1-1--|--1-/-3-/-5-\-3-----1-----0--------|
g3|--0-----0-0---0-0-0h2---2-2p0-0-0--|--0---0---0---0-----0-----0--------|
d3|--0h2---2-2p0-0-0-3-----3-3---3-3--|--2-/-3-/-5-\-3-----2-----0--------|
a3|--3-----3-----3-3-3-----3-3---3-3--|--0-----------------------x--------|
e3|--3-----------3-3------------------|--------------------------3--------|

     1   +   2   +   3   +   4   +    |  1   +   2   +   3   +   4   +    |
e3|--0-----------0-0-0-------0---0-0--|--0--------------------------------|
b3|--1-----1-1---1-1-1-----1-1---1-1--|--1-/-3-/-5-\-3-----1-----0--------|
g3|--0-----0-0---0-0-0h2---2-2p0-0-0--|--0---0---0---0-----0-----0--------|
d3|--0h2---2-2p0-0-0-3-----3-3---3-3--|--2-/-3-/-5-\-3-----2-----0--------|
a3|--3-----3-----3-3-3-----3-3---3-3--|--0-----------------------x--------|
e3|--3-----------3-3------------------|--------------------------3--------|

     1   +   2   +   3   +   4   +    |  1   +   2   +   3   +   4   +   5   +   6   +   |
e3|--0-----------0-0-0-------0---0-0--|--0-------------------------------1---------------|
b3|--1-----1-1---1-1-1-----1-1---1-1--|--1-/-3-/-5-\-3---0~--------------1---------------|
g3|--0-----0-0---0-0-0h2---2-2p0-0-0--|--0---0---0---0---0~--------------2---------------|
d3|--0h2---2-2p0-0-0-3-----3-3---3-3--|--2-/-3-/-5-\-3---2~--------------3---------------|
a3|--3-----3-----3-3-3-----3-3---3-3--|--0---------------2~--------------3---------------|
e3|--3-----------3-3------------------|------------------0~--------------1---------------|

     1   +   2   +   3   +   4   +   |  1   +   2   +   3   +   4   +   |  1   +   2   +   3   +   4   +   |
e3|----------------------------------|----------------------------------|----------------------------------|
b3|--1---0-------0-------------------|--3---1---0---1-------------------|--1---1---1---1---1---1---1---1---|
g3|--0---0---2---0-------------------|--2---2---2---2-------------------|--2---2---2---2---2---2---2---2---|
d3|--0~------0-----------------------|--0-------------------------------|--3---3---3---3---2---2---2---2---|
a3|--x-------------------------------|--x-------------------------------|--3---3---3---3---0---0---0---0---|
e3|--3-------------------------------|--2-------------------------------|----------------------------------|

    1   +   2   +   3   +   4   +   |  1   +   2   +   3   +   4   +   |  1   +   2   +   3   +   4   +   |
e3|----------------------------------|----------------------------------|----------------------------------|
b3|--1---0-------0-------------------|--3---1---0---1-------------------|--1---1---1---1---1---1---1---1---|
g3|--0---0---2---0-------------------|--2---2---2---2-------------------|--2---2---2---2---2---2---2---2---|
d3|--0~------0-----------------------|--0-------------------------------|--3---3---3---3---2---2---2---2---|
a3|--x-------------------------------|--x-------------------------------|--3---3---3---3---0---0---0---0---|
e3|--3-------------------------------|--2-------------------------------|----------------------------------|

     1   +   2   +   3   +   4   +   |  1   +   2   +   3   +   4   +   |
e3|--0---0---0---0-------------------|--------------0-----------0-------|
b3|--3---3---3---3---1---1---1---1---|--1-------1---1-----------1-------|
g3|--2---2---2---2---2---2---2---2---|--2-------2---2-----------2-------|
d3|--0---0---0---0---2---2---2---2---|--3-------3---3-----------3-------|
a3|------------------0---0---0---0---|--3-------3---3-----------3-------|
e3|----------------------------------|----------------------------------|

     1   +   2   +   3   +   4   +   |  1   +   2   +   |
e3|----------------------------------|--1---1---1---1---|
b3|--0-------0-------0-------0-------|--3---3---3---3---|
g3|--0-------0-------0-------0-------|--0---0---0---0---|
d3|--0-------0-------0-------0-------|--0---0---0---0---|
a3|--x-------x-------x-------x-------|--3---2---0---2---|
e3|--3-------3-------3-------3-------|--x---x---x---x---|

(refrão 3)
     1   +   2   +   3   +   4   +    |  1   +   2   +   3   +   4   +    |
e3|--0-----------0-0-0-------0---0-0--|--0--------------------------------|
b3|--1-----1-1---1-1-1-----1-1---1-1--|--1-/-3-/-5-\-3-----1-----0--------|
g3|--0-----0-0---0-0-0h2---2-2p0-0-0--|--0---0---0---0-----0-----0--------|
d3|--0h2---2-2p0-0-0-3-----3-3---3-3--|--2-/-3-/-5-\-3-----2-----0--------|
a3|--3-----3-----3-3-3-----3-3---3-3--|--0-----------------------x--------|
e3|--3-----------3-3------------------|--------------------------3--------|

     1   +   2   +   3   +   4   +    |  1   +   2   +   3   +   4   +    |
e3|--0-----------0-0-0-------0---0-0--|--0--------------------------------|
b3|--1-----1-1---1-1-1-----1-1---1-1--|--1-/-3-/-5-\-3-----1-----0--------|
g3|--0-----0-0---0-0-0h2---2-2p0-0-0--|--0---0---0---0-----0-----0--------|
d3|--0h2---2-2p0-0-0-3-----3-3---3-3--|--2-/-3-/-5-\-3-----2-----0--------|
a3|--3-----3-----3-3-3-----3-3---3-3--|--0-----------------------x--------|
e3|--3-----------3-3------------------|--------------------------3--------|

     1   +   2   +   3   +   4   +    |  1   +   2   +   3   +   4   +    |
e3|--0-----------0-0-0-------0---0-0--|--0--------------------------------|
b3|--1-----1-1---1-1-1-----1-1---1-1--|--1-/-3-/-5-\-3---0~---------------|
g3|--0-----0-0---0-0-0h2---2-2p0-0-0--|--0---0---0---0---0~---------------|
d3|--0h2---2-2p0-0-0-3-----3-3---3-3--|--2-/-3-/-5-\-3---2~---------------|
a3|--3-----3-----3-3-3-----3-3---3-3--|--0---------------2~---------------|
e3|--3-----------3-3------------------|------------------0~---------------|

     1   +   2   +   3   +   4   +    |
e3|--0~------0------------------------|
b3|--1~------1------------------------|
g3|--2~------2-------0~---------------|
d3|--3~------3-------0~---------------|
a3|--3~------3-------3---2---0---2----|
e3|------------------3----------------| 

     1   +   2   +   3   +   4   +    |  1   +   2   +   3   +   4   +    |
e3|-----------------------------------|-----------------------------------|
b3|--1-------1------------------------|--0-------0------------------------|
g3|--2-------2-------0-------0--------|--0-------0-------0----------------|
d3|--3-------3-------0-------0--------|--2-------2-------0----------------|
a3|--3-------3-------x-------x--------|--2-------2-------x----------------|
e3|------------------3-------3--------|--0-------0-------3----------------|
Otros videos de esta canción
    14 exhibiciones
      • ½ Tono
      • A
      • Bb
      • B
      • C
      • Db
      • D
      • Eb
      • E
      • F
      • F#
      • G
      • Ab
    • Agregar a la lista

    Afinação da cifra

    Afinador online

      Ops (: Contenido disponible solo en portugués.
      OK