Cifra Club

Soundczech

Something For Kate

Cifrado: Principal (guitarra y guitarra eléctrica)
Selo Cifra Club: esta cifra foi revisada para atender aos critérios oficiais da nossa Equipe de Qualidade.
tono: A
E|---||------------------------------------------------------||----------
B|---||-------------------------------------------------0----||----------
G|---||*---------------------------7------------------------*||----------
D|---||*-----------5---7-------7-----------7---/---10-------*||----------
A|---||--------7-----------5-----------7---7---/---10--------||----------
E|---||----5-------------------------------5-----------------||----------

E|---------------------------------------||-------|--------|-------------
B|---------------------------------------||-------|--------|-------------
G|---------------------------------------||---6---|---11---|-------------
D|---------------------------------------||---7---|---12---|-------------
A|---------------------------------------||---4---|---9----|-------------
E|---0---3---5---5---5---5---5---3---0---||---5---|---10---|-------------

E|-------------|-------|-----------|-------------|-------|--------|------
B|-------------|-------|---7-------|-------------|-------|--------|------
G|---9----10---|---4---|---7---6---|---9----10---|---6---|---11---|------
D|---10---10---|---5---|---7---7---|---10---10---|---7---|---12---|------
A|---7----7----|---2---|---5---7---|---7----7----|---4---|---9----|------
E|---8----8----|---3---|-------5---|---8----8----|---5---|---10---|------

E|-------------|-------|---------------|---------------|-----------------
B|-------------|-------|---7---8---7---|---------------|-----------------
G|---9----10---|---4---|---7---7---7---|---6---7---6---|-----------------
D|---10---10---|---5---|---7---7---7---|---7---7---7---|-----------------
A|---7----7----|---2---|---5---5---5---|---7---7---7---|-----------------
E|---8----8----|---3---|---------------|---5---5---5---|-----------------

E|---------------|---------------|---0-----------------------------------
B|---5---6---5---|---------------|---0-----------------------------------
G|---5---5---5---|---4---5---4---|---1---/---9---------------------------
D|---5---5---5---|---5---5---5---|---2---/---9---------------------------
A|---3---3---3---|---5---5---5---|---2---/---7---------------------------
E|---------------|---3---3---3---|---0-------0---------------------------

E|---||----0---0---0----||-------------------------------|---------------
B|---||----7---0---0----||-------------------------------|---------------
G|---||*---7---5---1---*||-----------0---2-------0---2---|---------------
D|---||*---7---5---2---*||-------2-----------2-----------|---------------
A|---||----5---3---2----||---0---------------------------|---------------
E|---||------------0----||-------------------------------|---------------

E|-------------------------------|-------------------------------|-------
B|-------------------------------|-------------------------------|-------
G|-----------0---2-------0---2---|-----------0---2-------0---2---|-------
D|-------2-----------2-----------|-------2-----------2-----------|-------
A|---0---------------------------|---3---------------------------|-------
E|-------------------------------|-------------------------------|-------

E|-------------------------------|-------------------------------|-------
B|-------------------------------|-------------------------------|-------
G|-----------0---2-------0---2---|-----------0---2-------0---2---|-------
D|-------2-----------2-----------|-------2-----------2-----------|-------
A|---3---------------------------|---2---------------------------|-------
E|-------------------------------|-------------------------------|-------

E|-------------------------------|-------------------------------|-------
B|-------------------------------|-------------------------------|-------
G|-----------0---2-------0---2---|-----------0---2-------0---2---|-------
D|-------2-----------2-----------|-------2-----------2-----------|-------
A|-------------------------------|---1---------------------------|-------
E|---0---------------------------|-------------------------------|-------

E|--------------------------------||-------------------------------|-----
B|--------------------------------||-------------------------------|-----
G|-----------0---2-------0---2---*||-----------0---2-------0---2---|-----
D|-------2-----------2-----------*||-------2-----------2-----------|-----
A|--------------------------------||-------------------------------|-----
E|---1----------------------------||---0---------------------------|-----

E|-------------------------------|-------------------------------|-------
B|-------------------------------|-------------------------------|-------
G|-----------0---2-------0---2---|-----------0---2-------0---2---|-------
D|-------2-----------2-----------|-------2-----------2-----------|-------
A|-------------------------------|---1---------------------------|-------
E|---0---------------------------|-------------------------------|-------

E|--------------------------------||-------------------------------------
B|--------------------------------||-------------------------------------
G|-----------0---2-------0---2---*||-------------------------------------
D|-------2-----------2-----------*||-------------------------------------
A|--------------------------------||-------------------------------------
E|---1----------------------------||-------------------------------------

Otros videos de esta canción
    11 exhibiciones
      • ½ Tono
      • A
      • Bb
      • B
      • C
      • Db
      • D
      • Eb
      • E
      • F
      • F#
      • G
      • Ab
    • Agregar a la lista

    Afinação da cifra

    Afinador online

      Ops (: Contenido disponible solo en portugués.
      OK