Cifra Club

I Do

Son Of God

Cifrado: Principal (guitarra y guitarra eléctrica)
Selo Cifra Club: esta cifra foi revisada para atender aos critérios oficiais da nossa Equipe de Qualidade.
tono: C
Em G
I need........ speak of you  
I make....you to be pretty 
I give.....kiss and food 
I make.... sex with condom 

F G

but you only reject me, 
you don't like as I am, 
but I go to try to move until the night... 

I do
  
I think... .. you all night  
I try..... to kiss 
I make..... everything for  you 
I cover.......your lies 

I am disappointed
I think about you all night to me  
to me  
--------------12----------------12-10-11-10------
--------9-12------------9-12---------------------            4 vezes
---9-12-----------9-12---------------------------
-------------------------------------------------
-------------------------------------------------
-------------------------------------------------

I need........ speak of you  
I make....you to be pretty 
I give.....kiss and food 
I make.... sex with condom 

but you only reject me, 
you don't like as I am, 
but I go to try to move until the night... 

I do
  
I think... .. you all night  
I try..... to kiss 
I make..... everything for  you 
I cover.......your lies 

I am disappointed
I think about you all alone night to me  
I do... I do... I do

-------------------------------------------------
-------------------------------------------------
-------------------------------------------------
--------------12----------------12-10-11-10------
--------9-12------------9-12---------------------             4 vezes
---9-12-----------9-12---------------------------
Otros videos de esta canción
412 exhibiciones
    • ½ Tono
    • A
    • Bb
    • B
    • C
    • Db
    • D
    • Eb
    • E
    • F
    • F#
    • G
    • Ab
  • Agregar a la lista

Afinación de cifrado

Afinador online

    OK