Cifra Club

Aprenda

Abandoned, Pleased, Brainwashed, Exploited

Sonata Arctica

Tablatura: Principal (guitarra)
Tom: G
Tune down 1/2 step!

  Introdução                                                            *8  Verso
e|-------------------------------------------------------------------|-------|
B|-------------------------------------------------------------------|-------|
G|---9---------9---------9---------9---------------------------------|-------|
D|---9---------9---------7---------7---------12p10p8-----------------|--2----|
A|---7-7-7-7-7-7-7-7-7-7-7-7-7-7-7-7-7-7-7-7---------12p10p9---------|--2----|
E|-----------------------------------------------------------12p10---|--0----|


e|---------------------------------------------------------------------------|
B|---------------------------------------------------------------------------|
G|---------------------------7-------7-------7----5-------5-------5----6-----|
D|------5-------5-------5----7-------7-------7----5-------5-------5----7-----|
A|------5-------5-------5----5-5-5-5-5-5-5-5-5-5--3-3-3-3-3-3-3-3-3-3--5-5-5-|
E|------3-3-3-3-3-3-3-3-3-3--------------------------------------------------|



               *2   
e|----------------|----------------------------------------------------------|
B|----------------|----------------------------------------------------------|
G|--6-------6-----|--9---------9---------9-------9---------------------------|
D|--7-------7-----|--9---------9---------7-------7---------12p10p9-----------|
A|5-5-5-5-5-5-5---|--7-7-7-7-7-7-7-7-7-7-7-7-7-7-7-7-7-7-7---------12p10p9---|
E|----------------|--------------------------------------------------------12|


e|---------------------------------------------------------------|-----------|
B|---------------------------------------------------------------|-----------|
G|-----7---------7---------5---------5---------------------------|--Verso-2--|
D|-----7---------7---------5---------5----------7h5h4------------|-----------|
A|-----5-5-5-5-5-5-5-5-5-5-3-3-3-3-3-3-3-3-3-3--------7h5h4------|-----------|
E|p10-------------------------------------------------------7h5--|-----------|



    Pre Refrão  
e||-----------------------------------------------|--------------------------|
B||-----------------------------------------------|--------------------------|
G||--5-----7----------------5-----7---------------|--5---------------------7-|
D||--5-----7-----7----------5-----7------5-----7--|--5----------5----------7-|
A||--3-----5-----7----------3-----5------5-----7--|--3----------5----------5-|
E||--------------5-----------------------3-----5--|-------------3------------|


e|----------------------------------------------------------|--------------|-|
B|----------------------------------------------------------|--------------|-|
G|---------9-----7------5---------------------7-------------|--------|-|
D|---------9-----7------5----------5----------7----------9--|--(Dois-tempos)-|-|
A|---------7-----5------3----------5----------5----------9--|--------------|-|
E|---------------------------------3---------------------7--|--------------|-|


e|--------|--------------|---------------------------------------------------|
B|--------|--------------|---------------------------------------------------|
G|-Verso--|--Pre-refrao--|---------------------------------------------------|
D|--------|--------------|---------------------------------------------------|
A|--------|--------------|---------------------------------------------------|
E|--------|--------------|--0-0-0---0-0-----0--0-0-0-----0--0-0-----0-0-0--0-|


e|---------------------------------------------------------------------------|
B|---------------------------------------------------------------------------|
G|---------------------------------------------------------------------------|
D|---------------------------------------------------------------------------|
A|---------------------------------------------------------------------------|
E|-0--0--0--0-0-0-----0--0-0-----0-0-0-0--0--0-----0--0-0-0-----0--0-0-----0-|


e|---------------------------------------------------------------------------|
B|---------------------------------------------------------------------------|
G|---------------------------------------------------------------------------|
D|--------------------------------------------2----------2-------------------|
A|--------------------------------------------2----------2-------------------|
E|0-0-0-0--0--0--0--0-0-0--0--0-0-----0-0-0-0-0--0-0-0-0-0-----0--0-0-0--0--0|


e|---------------------------------------------------------------------------|
B|---------------------------------------------------------------------------|
G|---------------------------------------------------------------------------|
D|---------------------------------------------------------------------------|
A|---------------------------------------------------------------------------|
E|-----0--0-0-0-----0--0-0-----0-0-0-0--0--0--0--0-0-0-----0--0-0-----0-0-0-0|


e|---------------------------------------------------------------------------|
B|---------------------------------------------------------------------------|
G|---------------------------------------------------------------------------|
D|---------------------------------------------------------------------------|
A|---------------------------------------------------------------------------|
E|--0--0-----0--0-0-0-----0--0-0-----0-0-0-0-0--0--0--0--0-0-0--0--0-0-----0-|


e|--------------------|----0--------2--------0--------------0--------2-------|
B|--------------------|------1--------3--------1--------------1--------3-----|
G|--------------------|--------0--------2--------2--------------0--------2---|
D|------2----------2--|-----------0----------------2---------------0---------|
A|------2----------2--|--3-----------------0----------0-2-3------------------|
E|0-0-0-0--0-0-0-0-0--|-----------------------------------------------------3|


e|-3--------5--------0--------2--------0--------------0-------2--------0-----|
B|---3--------5--------1--------3--------1--------------1-------3--------0---|
G|-----4--------5--------0--------2--------2--------------0-------2--------0-|
D|--------------------------0----------------2--------------0----------------|
A|-----------------3-----------------0----------0-2-3------------------------|
E|--------5----------------------------------------------------------0-------|


  e|---|-----------------------------------------------------------------------|
B|---|-----------------------------------------------------------------------|
G|---|---2--4--5----7----9--------5----7------------5----7--------------5----|
D|2--|---2--4--5----7----9--------5----7----7-------5----7----5----7----5----|
A|---|---0--2--3----5----7--------3----5----7-------3----5----5----7----3----|
E|---|--------------------------------------5-----------------3----5---------|


e|----------------------------|----------|----------|------||----|
B|----------------------------|----------|----------|------||----|
G|7---------5----7------------|--Refrão--|----|--9---||-Fim|
D|7----7----5----7----5----7--|---(x2)---|---(x2)---|--9---||----|
A|5----7----3----5----5----7--|----------|----------|--7---||----|
E|-----5--------------3----5--|----------|----------|------||----|
Compositor Tony Kakko
Colaboración y revision:
  • Gustavo Kuhn
40 reproducciones
    • ½ Tom
    • A
    • Bb
    • B
    • C
    • Db
    • D
    • Eb
    • E
    • F
    • F#
    • G
    • Ab
  • Adicionar à lista

    0 comentarios

    Mostrar mais comentários

    ¿Conseguiste tocar?

    0 Tocaron 0 Ainda não

    Grave um vídeo tocando Abandoned, Pleased, Brainwashed, Exploited e mande pra gente!

    00:00 / 00:00
    outros vídeos desta música
    repetir qualidade Automático
    Outros vídeos desta música
    00:00 / 00:00
    Automático
    OK