Cifra Club

Aprenda

Blinded No More

Sonata Arctica

Tab de bajo: Principal
Album: (Reckoning Night)

Version 1.0 - (*)

Transcribed By: (Aquila)
Email:          (*)

Tuning E A D G

INTRO

G |--------------------------------------|
D |--------------------------------------|
A |-------------------4-4-4-4------------|
E |-2-2-2-2--2-2-2-2-----------0-0-0-0---|x2

G |--------------------------------------|
D |--------------------------------------|
A |-2-2-2-2--0-0-0-0---------------------|
E |-------------------4-4-4-4--0-0-0-0---|x2

VERSE ``Your pretty face seduced me…``

G |--------------------------------------|
D |--------------------------------------|
A |-2-2-2-2--2-2-2-2--0-0-0-0------------|
E |----------------------------2-2-2-2---|x2

G |---------------------------------------------------|
D |---------------------------------------------------|
A |-2-2-2-2--2-2-2-2-----------0-0-0-0-----5-----2----|
E |-------------------2-2-2-2-------------------------|x1

´´You found all seven ways to keep me near…``

G |--------------------------------------|
D |--------------------------------------|
A |-2-2-2-2--2-2-2-2--0-0-0-0------------|
E |----------------------------2-2-2-2---|x2

G |---------------------------------------------------|
D |---------------------------------------------------|
A |-2-2-2-2--2-2-2-2-----------0-0-0-0-----5-----2----|
E |-------------------2-2-2-2-------------------------|x1

PRE-CHORUS ´´You sucked out my will to live…´´

G |--------------------------------------------------|
D |--------------------------------------------------|
A |-------0-----4-----0-----3-----0-----3--5--4--0---|
E |-0------------------------------------------------|x1

First solo, play pre chorus.

´´Now I have myself to live for…``

G |-----------|
D |-----------|
A |-5-----2---|
E |-----------|x1

Then PRE-CHORUS
And

CHORUS. ´´Oo, my life out of my hands…´´

G |-----------------------------------------------|
D |-----------------------------------------------|
A |-------------------0-0-0-0--2-2-2-2--5-5-5-5---|
E |-0-0-0-0--3-3-3-3------------------------------|x1

G |-----------------------------------------------|
D |-----------------------------------------------|
A |-------------------0-0-0-0--2-2-2-2------------|
E |-0-0-0-0--3-3-3-3--------------------2-2-2-2---|x1

´´Say the words I wanna hear…´´

G |--------------------------------------|
D |--------------------------------------|
A |-3-3-3-3--2-2-2-2--5-5-5-5--5-5-5-5---|
E |--------------------------------------|x1

G |--------------------------------------|
D |--------------------------------------|
A |-3-3-3-3--0-0-0-0--5-5-5-5--5-5-5-5---|
E |--------------------------------------|x1

HEVAUS-PART

G |---------------|
D |---------------|
A |-2-2-2-2-2-2---|
E |---------------|x4

G |----------------------------------------------|
D |----------------------------------------------|
A |------------3-3-3-3-3--2-2-2-2-2--------------|
E |-0-0-0-0-0------------------------0-0-0-0-0---|x1

G |---------------------------------------------|
D |---------------------------------------------|
A |-5-5-5-5-5--3-3-3-3-3--2-2-2-2-2-2-2-2-2-2---|
E |---------------------------------------------|x1

´´Nothing is service free...´´

G |--------------------------------------------------------|
D |--------------------------------------------------------|
A |-3-3-3-3-3-------------4-4-4-4-4--5-5-5-5-5-5-5-5-5-5---|
E |------------0-0-0-0-0-----------------------------------|x1

Then PRE-CHORUS

And then that oo oo oo-part.
That’s almost same as INTRO But the order is different.

G |--------------------------------------|
D |--------------------------------------|
A |-------------------4-4-4-4------------|
E |-2-2-2-2--2-2-2-2-----------0-0-0-0---|x2

G |--------------------------------------|
D |--------------------------------------|
A |-2-2-2-2--0-0-0-0---------------------|
E |-------------------4-4-4-4--0-0-0-0---|x1

G |--------------------------------------|
D |--------------------------------------|
A |-------------------4-4-4-4------------|
E |-2-2-2-2--2-2-2-2-----------0-0-0-0---|x2

G |--------------------------------------|
D |--------------------------------------|
A |-2-2-2-2--0-0-0-0---------------------|
E |-------------------4-4-4-4--0-0-0-0---|x2

Then the solos
Play PRE-CHORUS x2

After the solo comes CHORUS and then

OUTRO

G |--------------------------------------|
D |--------------------------------------|
A |-------------------0-0-0-0--0-0-0-0---|
E |-0-0-0-0--0-0-0-0---------------------|x2

G |-----------------------------------------------------------------|
D |-----------------------------------------------------------------|
A |-3-3-3-3--3-3-3-3--5-5-5-5--5-5-5-5--3-3-3-3--0-0-0-0--5-5-5-5---|
E |-----------------------------------------------------------------|x1

That is my way how I play this song.
I stop there, but there is a little guitar part in the end ´´Now take me again´´, but I don’t play that.
Compositor Tonny Kakko
18 reproducciones

0 comentarios

Mostrar mais comentários

¿Conseguiste tocar?

0 Tocaron 0 Ainda não

Grave um vídeo tocando Blinded No More e mande pra gente!

00:00 / 00:00
outros vídeos desta música
repetir qualidade Automático
Outros vídeos desta música
00:00 / 00:00
Automático
OK