Cifra Club

Aprenda

Broken

Sonata Arctica

Tablatura: Principal (guitarra)
Tom: E
Obs.:afinar em Standard C


Verso (2xs)
E------------------------------------------------------
B------------------------------------------------------
G---------------5-5-5----------------------------------
D-2-2-------3---5-5-5---4--2---------------------------
A-2-2---5---1---3-3-3---2--0---------------------------
E-0-0---3----------------------------------------------

Verso 2 (2xs)
E-----------------------------------------------------------------
B-----------------------------------------------------------------
G-----------------------------------------------------------------
D----------------------------3------5--------5------4--------2----
A----2--------5------5--1111-1---33-3---3333-3---22-2---0000-0----
E-00-0---3333-3---33-3--------------------------------------------

Pre-Chorus (2xs)
E------------------------------------------------------
B------------------------------------------------------
G------------------------------------------------------
D------------------------------------------------------
A-444-4---666-6---777-7---999-9------------------------
E-222-2---444-4---555-5---777-7------------------------

Continua com:(2xs)
E-------------------------------------------------------------------
B-------------------------------------------------------------------
G-------------------------------------------------------------------
D-------------------------------------------------------------------
A-x/-444-4-4444-444---666-6-6666-666--777-7-7777-777-999-9-9999-999-
E-x/-222-2-2222-222---444-4-4444-444--555-5-5555-555-777-7-7777-777-

Chorus (2xs)
E------------------------------------------------------
B------------------------------------------------------
G-5---8------------------------------------------------
D-5---8---5---8----------------------------------------
A-3---6---5---8----------------------------------------
E---------3---6----------------------------------------

Verso 2 (2xs)

Pre-Chorus

Chorus (2xs)

"Little Broken, always been..." (voz e baixo)

Bridge
E------------------------------------------------------
B------------------------------------------------------
G-8---9------------------------(8xs)-------------------
D-8---10---8-5--5---8-10--10---3-5-5-------------------
A-6---8----8-5--5---8-10--10---3-5-5-------------------
E----------6/3--3---6/8---8----1/3-3-------------------

Solo (volume effect)
E-15-13-11-10-11-13-11-10-------------------------------------------------------
B--------------------------11--11-----------------------------------------------
G----------------------------12--10-----------------------15---14-12---12-10----
D-------------------------------------13--12-13-10---12-13----------12----------
A---------------------------------------------------------------------------13--
E-------------------------------------------------------------------------------

Chorus(4xs)
Compositor Sonata Arctica
Colaboración y revision:
  • Gabriel Silva
141 reproducciones
    • ½ Tom
    • A
    • Bb
    • B
    • C
    • Db
    • D
    • Eb
    • E
    • F
    • F#
    • G
    • Ab
  • Adicionar à lista

    0 comentarios

    Mostrar mais comentários

    ¿Conseguiste tocar?

    0 Tocaron 0 Ainda não

    Grave um vídeo tocando Broken e mande pra gente!

    00:00 / 00:00
    outros vídeos desta música
    repetir qualidade Automático
    Outros vídeos desta música
    00:00 / 00:00
    Automático
    OK