Cifra Club

Aprenda

Destruction Preventer

Sonata Arctica

Tablatura: Principal (guitarra)
Tom: C
Intro:

listen when guitar enters..

clean

p.m all the way..
e:----------------------------------------------------------------------
B:----------------------------------------------------------------------
G:-7---9---10---9----7---9---10---9----5---7---9---5---10---9---7---5---
D:---7---7----7---7----8---8----8---8----5---5---5---5----5---5---5---5-
A:----------------------------------------------------------------------
E:----------------------------------------------------------------------

e:----------------------------------------------------------------------
B:----------------------------------------------------------------------
G:-7---9---10---9----7---9---10---9----7-------6-------6-------6--------
D:---8---8----8---8----8---8----8---8----7---7---7---7---7---7---7---7--
A:-----------------------------------------7-------7-------7-------7----
E:----------------------------------------------------------------------


Some strange effect here.. sounds like more tones that it is..
e:------------------------------------------------------------------------
B:------------------------------------------------------------------------
G:-7---9---10---9----7---9---10---9----7---9---10---9----7---9---10---9---
D:---7---7----7---7----7---7----7---7----7---7----7---7----7---7----7---7-
A:------------------------------------------------------------------------
E:------------------------------------------------------------------------


keyboard riff

guitar enters..

e:----------------------------------------------------
B:----------------------------------------------------
G:----*---------------------------7----------------*--
D:-\--*------7-8--7-------------7----10-8-7----7-8-*--
A:-\------8--------10-8-7----8-------------10---------
E:-----10-----------------10--------------------------

e:------------------------------------------
B:------------------------------------------
G:------7-10--9-7--------------------6-7-9--
D:----8-----------10-8--7-8-7----7-8--------
A:-10-------------------------10------------
E:------------------------------------------


Riff:

p.m  . . . . 
e:--------------
B:--------------
G:-2---------3--
D:-0-0-0-0-0-0--  x4
A:--------------
E:--------------



Verse:

I'm at home where my...

p.m    . . . .     . . . . . .   . . . .     . . . . . . 
e:------------------------------------------------------------------
B:------------------------------------------------------------------
G:-*-------------------------------------------------------------*--
D:-*-7---------7-7-------------7---------7-7-------------5-------*--
A:---5-5-5-5-5-5-5-5-5-5-5-5-5-5-5-5-5-5-5-5-5-5-5-5-5-5-3---7------
E:-----------------------------------------------------------5------


Bridge:

Everyones future...

e:-------------------
B:-------------------
G:---------5---------
D:-3-------3----7----
A:-1-1*---------7----
E:--------------5----


Verse:

Miss the times when I was roaring..

p.m    . . . .     . . . . . .   . . . .     . . . . . . 
e:------------------------------------------------------------------
B:------------------------------------------------------------------
G:-*-------------------------------------------------------------*--
D:-*-7---------7-7-------------7---------7-7-------------5-------*--
A:---5-5-5-5-5-5-5-5-5-5-5-5-5-5-5-5-5-5-5-5-5-5-5-5-5-5-3---7------
E:-----------------------------------------------------------5------

p.m  . . . .     . . . . . .   . . . .     . . . . . .   . . . . 
e:------------------------------------------------------------------------
B:------------------------------------------------------------------------
G:------------------------------------------------------------------------
D:-7---------7-7-------------7---------7-7-------------5---------5--------
A:-5-5-5-5-5-5-5-5-5-5-5-5-5-5-5-5-5-5-5-5-5-5-5-5-5-5-3-3-3-3-3-3---7----
E:-------------------------------------------------------------------5----


Bridge:

I think the red star will...

e:-------------------
B:-------------------
G:---------5---------
D:-3-------3---7-----
A:-1-1*--------7-----
E:-------------5-----


Chorus:

Heat in the center...

e:-----------------------------------
B:-----------------------------------
G:---------5---5---3---3---5---------
D:-7---8---5---3---3---3---3---2--5--
A:-5---5---3-------1---1----------3--
E:-----------------------------------

p.m  . . . .    . . . . . .   . . . .    . . . . . .   . . . .    . . . . . .   . . . .    . . . . . . 
e:--------------------------------------------------------------------------------------------------------------------
B:--------------------------------------------------------------------------------------------------------------------
G:----------------------------------------------------------------------------5---------5--------------3---3---2---2--
D:-7---------7--------------8---------8--------------5---------5--------------3-3-3-3-3-3--3-3-3-3-3-3-3---3---2---2--
A:-5-5-5-5-5-5--5-5-5-5-5-5-5-5-5-5-5-5--5-5-5-5-5-5-3-3-3-3-3-3--3-3-3-3-3-3--------------------------1---1---0---0--
E:--------------------------------------------------------------------------------------------------------------------


e:----------------------------
B:----------------------------
G:----------------------------
D:------7-8--7----------------
A:----8--------10-8-7---------
E:-10-----------------10-5-10-




Solos:

You have to handle these yourselves...

It's hard to hear what he plays all the time, 
besides: You will Improve as a guitarist
if you make your own solos..

Good Luck!  :)




rhythm guitar during all solos..

e:---------------------------------------------------------------------------
B:---------------------------------------------------------------------------
G:-------------------------------------------------------*----------------*--
D:----------7--------5--------------------------7--------*----------------*--
A:-7--------5-5*-----3-3*-----3--------5--------5-5*--------6*----8*--6*-----
E:-5-5*-----------------------1-1*-----3-3*----------------------------------

e:-----------------------------------
B:-----------------------------------
G:-*------------------------------*--
D:-*-7-7----7-7----7-7-7----5-----*--
A:---5-5----5-5----5-5-5----3--7-----
E:-----------------------------5-----

e:---------------------
B:---------------------
G:---------------------
D:-3-------------------
A:-1-1*----3---7---7---
E:---------1---5---5---



Verse:

If you go and have their way now...

p.m    . . . .     . . . . . .   . . . .     . . . . . . 
e:------------------------------------------------------------------
B:------------------------------------------------------------------
G:-*-------------------------------------------------------------*--
D:-*-7---------7-7-------------7---------7-7-------------5-------*--
A:---5-5-5-5-5-5-5-5-5-5-5-5-5-5-5-5-5-5-5-5-5-5-5-5-5-5-3---7------
E:-----------------------------------------------------------5------


Do it again because this...

e:--------------------------------
B:--------------------------------
G:-3-----5------------------------
D:-3-----3----7--------------7----
A:-1----------7--------------7----
E:------------5---6-5-3-5----5----



Oh Oh Oh...

e:--------------------------------------------------------------------------------------------------
B:--------------------------------------------------------------------------------------------------
G:-7--------------------3---7--------------------------------------------3---7----------------------
D:-7---7---3--5-3-2-5---3---7--------------------------7----3--5-3-2-5---3---7----------------------
A:-5---7------------5---1---5-------------4-5-7--5-7-8---7-----------5---1---5-------------4-5-7-5--
E:-----5------------3-----------5-6-5-3-5----------------------------3-----------5-6-5-3-5----------


e:--------------------------15---17---20B---
B:----------------15---18-------------------
G:-10---12---14-----------------------------
D:------------------------------------------
A:------------------------------------------
E:------------------------------------------



Yesterday I saw a light...

e:--------------------------------------------
B:--------------------------------------------
G:--------------------------------------------
D:-7----7-8-----5---------------8----5--------
A:-5----5-6-----3-3*-----5----5-6----3-3*-----
E:-----------------------3----3---------------



solo git/keys

e:-17-18-17-15-------------------------------------------------------------------------------------
B:-------------18-17-15----15-17-18-17-15----------------------------------------------------------
G:----------------------18----------------18-15-14-------------------------------------------------
D:-------------------------------------------------17-15-14----------14-15-14----------------------
A:----------------------------------------------------------17-16-17----------17-16-13-12----------
E:----------------------------------------------------------------------------------------15-13-12-

keys for guitar (1st)

e:-14b------------------------------------------17-
B:------18-17-18--15-17-18-17-15-17-15----15-18----
G:-------------------------------------18----------
D:-------------------------------------------------
A:-------------------------------------------------
E:-------------------------------------------------

guit (2nd)

e:-------------------------------------------------
B:-10b--10----10--------------------------------15-
G:---------12-----10-12-14-12-10-12-10----10-14----
D:-------------------------------------14----------
A:-------------------------------------------------
E:-------------------------------------------------

git/key

e:-17-18-17-15-------------------------------------------------------------------------------------
B:-------------18-17-15----15-17-18-17-15----------------------------------------------------------
G:----------------------18----------------18-15-14-------------------------------------------------
D:-------------------------------------------------17-15-14----------14-15-17-15-14----------------
A:----------------------------------------------------------17-16-17----------------17-16-13-12----
E:----------------------------------------------------------------------------------------------15-

keys (1st)

e:-14b------------------------------15-18-17-15----------
B:------18-17-18-----------15-17-18-------------18-17-15-
G:----------------14-15-18-------------------------------
D:-------------------------------------------------------
A:-------------------------------------------------------
E:-------------------------------------------------------

guit (2nd)

e:----------------
B:-10b--10----10--
G:---------12-----
D:----------------
A:----------------
E:----------------


rhythm guitar during first solo

e:-------------------------
B:-------------------------
G:--------7-----------7----
D:--------7-----------7----
A:--------5-----------5----
E:-5*----------5*----------


solo 2

git/keys

e:---15-----------------------------------------------------------------------------------------------
B:------15----15-18-15----15-17-15----15-18-15----13--15----------------------------------------------
G:-*-------14----------14----------14----------14--------14----14-17-14----14-16-14----14-17-14----14-
D:-*--------------------------------------------------------14----------14----------14----------14----
A:----------------------------------------------------------------------------------------------------
E:----------------------------------------------------------------------------------------------------

e:---------------------------------15----------------------15-17-18----
B:-13--------------18----------17-----16----16-18-16----16-------------
G:----12----12-16-----17----17-----------15----------15-------------*--
D:-------12--------------17-----------------------------------------*-- 
A:---------------------------------------------------------------------
E:---------------------------------------------------------------------


keys (1st)

e:-18--17--18-20-23B-----23--22-23-----very long tone.. :)---------------------------------------------
B:-----------------------------------------------------------------------------------------------------
G:-----------------------------------------------------------------------------------------------------
D:-----------------------------------------------------------------------------------------------------
A:-----------------------------------------------------------------------------------------------------
E:-----------------------------------------------------------------------------------------------------

guit (2nd)

e:-15-----------------------15-17-20B-----20--18-20----18-h20p18p17-18--17h18p17p15-17--15-h17p15p13--- 
B:----16----16-18-16----16-----------------------------------------------------------------------------
G:-------15----------15--------------------------------------------------------------------------------
D:-----------------------------------------------------------------------------------------------------
A:-----------------------------------------------------------------------------------------------------
E:-----------------------------------------------------------------------------------------------------


rhythm guitar during 2nd solo

e:---------------------------------
B:---------------------------------
G:--*--7----------5--8--*--8-------
D:--*--7---7---5--5--8--*--8-------
A:-----5---7---5--3--6-----6-------
E:---------5---3-------------------




clean

e:------------1----------------0-----------
B:--------3-------3--------3-----3---3-----
G:-*----2---2---2---2----3---3-----3----*--
D:-*--0----------------0----------------*--
A:-----------------------------------------
E:-----------------------------------------

e:---------1----------------0----------------0----------
B:-----3-------3--------3-----3---3--------2----2-------
G:---2---2---2---2----3---3-----3--------0---------0----
D:-0----------------0------------------2--------------2-
A:-----------------------------------3------------------
E:------------------------------------------------------

Now tell me who won here tonight..

e:-------0------------0------------0------------0------
B:-----3---3--------3---3--------1---1--------1---1----
G:---3-------3----3-------3----0-------0----0-------0--
D:-0------------0------------2------------2------------
A:-----------------------------------------------------
E:-----------------------------------------------------

The price, of winning worthless fight..

e:-------0------------0------------0---------------0------
B:-----3---3--------3---3--------1---1----------1----1----
G:---3-------3----3-------3----0-------0-----0---------0--
D:-0------------0------------2------------2---------------
A:--------------------------------------------------------
E:--------------------------------------------------------

We'll make the same mistakes again...

e:-------0------------0------------0---------------0------
B:-----3---3--------3---3--------1---1----------1----1----
G:---3-------3----3-------3----0-------0-----0---------0--
D:-0------------0------------2------------2---------------
A:--------------------------------------------------------
E:--------------------------------------------------------



Unless, this is truly the end... (go Tony! :)

e:-----------
B:-----------
G:-3----5----
D:-3----5----
A:-1----3----
E:-----------


Chorus:

Heat in the center...

e:--------------------------------------
B:--------------------------------------
G:-*----------5---5---3---3---5---------
D:-*--7---8---5---3---3---3---3---2--5--
A:----5---5---3-------1---1----------3--
E:--------------------------------------

p.m  . . . .    . . . . . .   . . . .    . . . . . .   . . . .    . . . . . .   . . . .    . . . . . . 
e:------------------------------------------------------------------------------------------------------------------------
B:------------------------------------------------------------------------------------------------------------------------
G:----------------------------------------------------------------------------5---------5--------------3---3---2---2---*--
D:-7---------7--------------8---------8--------------5---------5--------------3-3-3-3-3-3--3-3-3-3-3-3-3---3---2---2---*--
A:-5-5-5-5-5-5--5-5-5-5-5-5-5-5-5-5-5-5--5-5-5-5-5-5-3-3-3-3-3-3--3-3-3-3-3-3--------------------------1---1---0---0------
E:------------------------------------------------------------------------------------------------------------------------


e:----------------------------------------------------------------
B:----------------------------------------------------------------
G:----------------------------------------------------------------
D:------7-8--7--------------7-8--7--------------7-8--7------------
A:----8--------10-8-7-----8--------10-8-7-----8--------10-8-7-----
E:-10------------------10------------------10------------------10-

e:------
B:------
G:-7-7--
D:-7-7--
A:-5-5--
E:------




Tablature explanation:
p.m = palm muted
\ = slide down
b = bend ½ step
B = bend 1 step
* = continue picking
--*---*--
--*---*-- = repeat twice
h = hammer on
p = pull off

                                        
Compositor Tony Kakko
Colaboración y revision:
  • Pedro Merlussi
78 reproducciones
    • ½ Tom
    • A
    • Bb
    • B
    • C
    • Db
    • D
    • Eb
    • E
    • F
    • F#
    • G
    • Ab
  • Adicionar à lista

    0 comentarios

    Mostrar mais comentários

    ¿Conseguiste tocar?

    0 Tocaron 0 Ainda não

    Grave um vídeo tocando Destruction Preventer e mande pra gente!

    00:00 / 00:00
    outros vídeos desta música
    repetir qualidade Automático
    Outros vídeos desta música
    00:00 / 00:00
    Automático
    OK