Cifra Club

Aprenda

My Selene Intro

Sonata Arctica

Tablatura: Principal (guitarra)
Tom: C#
e---------------------------------------------|
b-11-9-11---------9-------------------------9-|
g---------10-8-10------8----------8-10-8-10---|
d------------------11----11-10-11-------------|
a---------------------------------------------|
e---------------------------------------------|

e------------------------------------------------|
b-11-9-11---------9------------------------------|
g---------10-8-10------8----------8-10-8---------|
d------------------11----11-10-11--------11-10-8-|
a------------------------------------------------|
e------------------------------------------------|
136 reproducciones
    • ½ Tom
    • A
    • Bb
    • B
    • C
    • Db
    • D
    • Eb
    • E
    • F
    • F#
    • G
    • Ab
  • Adicionar à lista

    0 comentarios

    Mostrar mais comentários

    ¿Conseguiste tocar?

    1 Tocaron 0 Ainda não

    Grave um vídeo tocando My Selene Intro e mande pra gente!

    00:00 / 00:00
    outros vídeos desta música
    repetir qualidade Automático
    Outros vídeos desta música
    00:00 / 00:00
    Automático
    OK