Cifra Club

Aprenda

Revontulet (instrumental)

Sonata Arctica

Tablatura: Principal (guitarra)
Tom: C
Tune down 1/2 step!

  Riff 1
E--20p19p17-----------------------------------------------------------------19~-----|
B-----------17----------------------------------------------------18h20h22~------17-|
G*-------------17p16p14----------------------------------------17-------------------|
D*----------------------14----------------------------15h17h19----------------------|
A--------------------------15p14p12----------------15-------------------------------|
E-----------------------------------12--/-13h15h17----------------------------------|

                                                                                 x4
E-17h19h20-----------------------------------------------------/-20-----------19~---|
B-------------------------------------------------------------------22p20p18~-------|
G-------------14h16h17----------------------------/-17-----------------------------*|
D----------14------------------------------------------19p17p15--------------------*|
A-------------------------12h14h15--/-15--------------------------------------------|
E----------------------12----------------17p15p13-----------------------------------|

  Riff 2
E-----------------------------------------------------------------------------------|
B-----------------------------------------------------------------------------------|
G*-------------------------/-17p16p14----------------10-/-12------------------------|
D*------------------------------------14-------------10-/-12--12-12-----------10h12h|
A-----15-14-12----12-14-15---------------15p14p12-----8-/-10--12-12--11h12h14-------|
E--12----------12---------------------------------12----------10-10-----------------|
  pm......................|

E-Two-Gtrs--------------------------------------------------------------------------|
B-----------------------------------------------------------------------------------|
G------------------------------------/-17p16p14----------------10-/-12--------------|
D14-12--9---------------------------------------14-------------10-/-12--12-12-------|
A---14~-11~-----15-14-12----12-14-15---------------15p14p12-----8-/-10--12-12--11h12|
E------------12----------12---------------------------------12----------10-10-------|
            pm.......................|

                x2
E------------Two--------------------------------------------------------------------|
B------------Gtrs---|---------------------------------------------------------------|
G------------------*|---------------------------------------------------------------|
D----10h12h14--9---*|---7\-5\-3\-5\-2\---7\-5\-3\5\-2\---7\-5\-3\-5\-2\---7--5--3--5|
Ah14----------11~---|---7\-5\-3\-5\-2\---7\-5\-3\5\-2\---7\-5\-3\-5\-2\---7--5--3--5|
E-----------------------5\-3\-1\-3\-0\---5\-3\-1\3\-0\---5\-3\-1\-3\-0\---5--3--1--3|

E-----------------------------------------------------------------------------------|
B-------|---------------------------------------------------------------------------|
G-------|*--10p7---\9p5---\7p3---/9p5---5p3-----3h5p3--/--...-under-construction----|
D---2~--|*-------7------5------3------5-----5p3-------------------------------------|
A---2~--|---------------------------------------------------------------------------|
E---0~------------------------------------------------------------------------------|

                                                         x2
E-----------------------------------------------------------------------------------|
B-----------------------------------------------------------|----------|------------|
G-10p7---\9p5---\7p3---/9p5---/10p7---\9p5---\7p3-------3--*|--Riff-2--|------------|
D------7------5------3------5-------7------5------3---3----*|----------|-----------/|
A---------------------------------------------------5-------|----------|--11h12h14--|
E-----------------------------------------------------------------------------------|

                                                   Two Guitars:
E--------Two------------------------------------------------------------------------|
B--------Gtrs------------------------|-----------|-----------------------------17-18|
G------------------------------------|--Riff-1---|--------------------16-17-19-17-19|
D10h12h14--9~-----------10h12h14~~---|---(x2)----|-----------15-17-19-17-19-21------|
A---------11~--11h12h14--------------|-----------|--15-17-19-17-19-20---------------|
E---------------------------------------------------17-19-20------------------------|

E----17-19/20-22-20\19-17\15-------------------------------------------------------||
B-20-18-21/22-24-22\21-18\17-18\17-15-18-17-15-------------------------------------||
G-21-------------------------19-17-16-19-17-16-17-16-14----------------------------|| end
D----------------------------------------------19-17-15-17-15-14-------------------||
A-------------------------------------------------------19-17-15-17-15\14/15~~--\--||
E----------------------------------------------------------------19-17\16/17~~--\--||

-----------------------------------------------------------------------------------------

=======================
=TABLATURE EXPLANATION=
=======================

A.H. = Artificial Harmonic

pm..| = Palm mute

h = hammer on

p = pull off

/ = slide up

\ = slide down

~ = Vibrato

b() = Bend

x\ = Pick Slide

--------
--------
---12--- = Tremolo pick
----/---
----/---
----/---

---.---
--12--- = Staccato
-------
-------
-------

|     |
|     |
|*   *| = repeat from * to *
|*   *| 
|     |
Colaboración y revision:
  • Pedro Merlussi
53 reproducciones
    • ½ Tom
    • A
    • Bb
    • B
    • C
    • Db
    • D
    • Eb
    • E
    • F
    • F#
    • G
    • Ab
  • Adicionar à lista

    0 comentarios

    Mostrar mais comentários

    ¿Conseguiste tocar?

    0 Tocaron 0 Ainda não

    Grave um vídeo tocando Revontulet (instrumental) e mande pra gente!

    00:00 / 00:00
    outros vídeos desta música
    repetir qualidade Automático
    Outros vídeos desta música
    00:00 / 00:00
    Automático
    OK