Cifra Club

Aprenda

The Misery

Sonata Arctica

Tablatura: Principal (guitarra)
Tom: C
Guitarra I


D#||--------------------------|-------------------------|
A#||--------------2-----------|-------------5-----------|
F#||-----------2-----2-----2--|-------6--------6-----6--|
C#||--------4-----------4-----|----------6--------6-----|
G#||-----4--------------------|--4----------------------|
D#||--2-----------------------|-------------------------|


-------------------------|--------------------------|
-------------7-----------|--------------------------|
-------7--------7-----7--|-----6-----------6--------|
----------7--------7-----|--------7-----------7-----|
--5----------------------|-----------7-----------7--|
-------------------------|--5-----------4-----------|


--------------------------|--------------------------|
--------------2-----------|--------------5-----------|
-----------2-----2-----2--|--------6--------6-----6--|
--------4-----------4-----|-----6-----6--------6-----|
-----4--------------------|--4-----------------------|
--2-----------------------|--------------------------|


--------------------------|--------------------------|
--------------7-----------|--------------------------|
--------7--------7-----7--|-----6-----------------9--|
-----7-----7--------7-----|--------7-----------7-----|
--5-----------------------|-----------7-----7--------|
--------------------------|--5-----------4-----------|


----------------------|----------------------|
-----------5----------|-----------7----------|
--------7-------------|--------9-------------|
-----7----------------|-----9----------------|
--5-------------------|--7-------------------|
----------------------|----------------------|


|---------------------------|--------------------------|
|---------------2-----------|--------------2-----------|
|*-----------2-----2-----2--|-----------2-----2--------|
|*--------4-----------4-----|--------4-----------4-----|
|------4--------------------|-----4-----------------4--|
|---2-----------------------|--2-----------------------|


--------------------------|--------------------------|
--------------3-----------|--------------3-----------|
--------4--------4-----4--|--------4--------4-----4--|
-----4-----4--------4-----|-----4-----4--------4-----|
--2-----------------------|--2-----------------------|
--------------------------|--------------------------|


-------------------------|------------------------|
-------------9-----------|-------------9----------|
-------9--------9-----9--|-------9--------9-------|
----------9--------9-----|----------9--------9----|
--7----------------------|--7---------------------|
-------------------------|------------------------|


--------------------------|---------------------------||
--------------7-----------|--------------3------------||
--------7--------7-----7--|--------4--------4--------*||
-----7-----7--------------|-----4-----4--------4-----*||
--5-----------------4-----|--2--------------------2---||
--------------------------|---------------------------||


--------------------------|--------------------------|
--------------2-----------|--------------2-----------|
-----------2-----2-----2--|-----------2-----2--------|
--------4-----------4-----|--------4-----------4-----|
-----4--------------------|-----4-----------------4--|
--2-----------------------|--2-----------------------|


--------------------------|--------------------------|
--------------3-----------|--------------3-----------|
--------4--------4-----4--|--------4--------4-----4--|
-----4-----4--------4-----|-----4-----4--------4-----|
--2-----------------------|--2-----------------------|
--------------------------|--------------------------|


-------------------------|------------------------|
-------------9-----------|-------------9----------|
-------9--------9-----9--|-------9--------9-------|
----------9--------9-----|----------9--------9----|
--7----------------------|--7---------------------|
-------------------------|------------------------|


--------------------------|--------------------------|
--------------7-----------|--------------3-----------|
--------7--------7-----7--|--------4--------4--------|
-----7-----7--------7-----|-----4-----4--------4-----|
--5-----------------------|--2--------------------2--|
--------------------------|--------------------------|


--------------------------|--------------------------|
--------------2-----------|--------------2-----------|
-----------2-----2-----2--|-----------2-----2--------|
--------4-----------4-----|--------4-----------4-----|
-----4--------------------|-----4-----------------4--|
--2-----------------------|--2-----------------------|


--------------------------|--------------------------|
--------------3-----------|--------------3-----------|
--------4--------4-----4--|--------4--------4-----4--|
-----4-----4--------4-----|-----4-----4--------4-----|
--2-----------------------|--2-----------------------|
--------------------------|--------------------------|


--------------------------|--------------------------|
--------------7-----------|--------------7-----------|
--------7--------7-----7--|--------7--------7-----7--|
-----7-----7--------7-----|-----7-----7--------7-----|
--5-----------------------|--5-----------------------|
--------------------------|--------------------------|


--------------------------|-------------------|
--------------3-----------|-------------------|
--------4--------4-----4--|-------------------|
-----4-----4--------4-----|-------------------|
--2-----------------------|--2----------------|
--------------------------|-------------------|


--------------------------|-------------------------|
--------------2-----------|-------------5-----------|
-----------2-----2-----2--|-------6--------6-----6--|
--------4-----------4-----|----------6--------6-----|
-----4--------------------|--4----------------------|
--2-----------------------|-------------------------|


-------------------------|--------------------------|
-------------7-----------|--------------------------|
-------7--------7-----7--|-----6-----------6--------|
----------7--------7-----|--------7-----------7-----|
--5----------------------|-----------7-----------7--|
-------------------------|--5-----------4-----------|


--------------------------|--------------------------|
--------------2-----------|--------------5-----------|
-----------2-----2-----2--|--------6--------6-----6--|
--------4-----------4-----|-----6-----6--------6-----|
-----4--------------------|--4-----------------------|
--2-----------------------|--------------------------|


--------------------------|--------------------------|
--------------7-----------|--------------------------|
--------7--------7-----7--|-----6-----------------9--|
-----7-----7--------7-----|--------7-----------7-----|
--5-----------------------|-----------7-----7--------|
--------------------------|--5-----------4-----------|


----------------------|----------------------|
-----------5----------|-----------7----------|
--------7-------------|--------9-------------|
-----7----------------|-----9----------------|
--5-------------------|--7-------------------|
----------------------|----------------------|


|---------------------------|--------------------------|
|---------------2-----------|--------------2-----------|
|*-----------2-----2-----2--|-----------2-----2--------|
|*--------4-----------4-----|--------4-----------4-----|
|------4--------------------|-----4-----------------4--|
|---2-----------------------|--2-----------------------|


--------------------------|--------------------------|
--------------3-----------|--------------3-----------|
--------4--------4-----4--|--------4--------4-----4--|
-----4-----4--------4-----|-----4-----4--------4-----|
--2-----------------------|--2-----------------------|
--------------------------|--------------------------|


-------------------------|------------------------|
-------------9-----------|-------------9----------|
-------9--------9-----9--|-------9--------9-------|
----------9--------9-----|----------9--------9----|
--7----------------------|--7---------------------|
-------------------------|------------------------|


--------------------------|---------------------------||
--------------7-----------|--------------3------------||
--------7--------7-----7--|--------4--------4--------*||
-----7-----7--------------|-----4-----4--------4-----*||
--5-----------------4-----|--2--------------------2---||
--------------------------|---------------------------||


-------------------|-------------------|-------------------|
-------------------|-------------------|-------------------|
-------------------|-------------------|-------------------|
-------------------|--6----------------|--7----------------|
--4----------------|--4----------------|--5----------------|
--2----------------|-------------------|-------------------|


--------------------|-------------------|
--------------------|-------------------|
--------------------|-------------------|
--------------------|-------------------|
--7--------7--------|--4----------------|
--5--------4--------|--2----------------|


-------------------|-------------------|
-------------------|-------------------|
-------------------|-------------------|
--6----------------|--7----------------|
--4----------------|--5----------------|
-------------------|-------------------|


--------------------|-------------------|
--------------------|-------------------|
--------------------|-------------------|
-----------6--------|--7----------------|
--7--------4--------|--5----------------|
--5-----------------|-------------------|


-------------------|-------------------|
-------------------|-------------------|
-------------------|-------------------|
--9----------------|-------------------|
--7----------------|--4----------------|
-------------------|--2----------------|


|--------------------|-------------------|
|--------------------|-------------------|
|*-------------------|-------------------|
|*-------------------|-------------------|
|---4----------------|--4----------------|
|---2----------------|--2----------------|


-------------------|-------------------|-------------------|
-------------------|-------------------|-------------------|
-------------------|-------------------|-------------------|
-------------------|-------------------|--7----------------|
--7----------------|--7----------------|--5----------------|
--5----------------|--4----------------|-------------------|


-------------------|-------------------|
-------------------|-------------------|
-------------------|-------------------|
--7----------------|-------------------|
--5----------------|--7----------------|
-------------------|--5----------------|


--------------------||-------------------|
--------------------||-------------------|
-------------------*||-------------------|
-------------------*||-------------------|
--7-----------------||--7----------------|
--4-----------------||--5----------------|


-------------------|
-------------------|
-------------------|
-------------------|
--7----------------|
--4----------------|


--------------------------|-------------------------|
--------------2-----------|-------------5-----------|
-----------2-----2-----2--|-------6--------6-----6--|
--------4-----------4-----|----------6--------6-----|
-----4--------------------|--4----------------------|
--2-----------------------|-------------------------|


-------------------------|--------------------------|
-------------7-----------|--------------------------|
-------7--------7-----7--|-----6-----------6--------|
----------7--------7-----|--------7-----------7-----|
--5----------------------|-----------7-----------7--|
-------------------------|--5-----------4-----------|


--------------------------|--------------------------|
--------------2-----------|--------------5-----------|
-----------2-----2-----2--|--------6--------6-----6--|
--------4-----------4-----|-----6-----6--------6-----|
-----4--------------------|--4-----------------------|
--2-----------------------|--------------------------|


--------------------------|--------------------------|
--------------7-----------|--------------------------|
--------7--------7-----7--|-----6-----------------9--|
-----7-----7--------7-----|--------7-----------7-----|
--5-----------------------|-----------7-----7--------|
--------------------------|--5-----------4-----------|


----------------------|----------------------|
-----------5----------|-----------7----------|
--------7-------------|--------9-------------|
-----7----------------|-----9----------------|
--5-------------------|--7-------------------|
----------------------|----------------------|


|---------------------------|--------------------------|
|---------------2-----------|--------------2-----------|
|*-----------2-----2-----2--|-----------2-----2--------|
|*--------4-----------4-----|--------4-----------4-----|
|------4--------------------|-----4-----------------4--|
|---2-----------------------|--2-----------------------|


--------------------------|--------------------------|
--------------3-----------|--------------3-----------|
--------4--------4-----4--|--------4--------4-----4--|
-----4-----4--------4-----|-----4-----4--------4-----|
--2-----------------------|--2-----------------------|
--------------------------|--------------------------|


-------------------------|------------------------|
-------------9-----------|-------------9----------|
-------9--------9-----9--|-------9--------9-------|
----------9--------9-----|----------9--------9----|
--7----------------------|--7---------------------|
-------------------------|------------------------|


--------------------------|---------------------------||
--------------7-----------|--------------3------------||
--------7--------7-----7--|--------4--------4--------*||
-----7-----7--------------|-----4-----4--------4-----*||
--5-----------------4-----|--2--------------------2---||
--------------------------|---------------------------||


--------------------------|--------------------------|
--------------7-----------|--------------7-----------|
--------7--------7-----7--|--------7--------7-----7--|
-----7-----7--------7-----|-----7-----7--------7-----|
--5-----------------------|--5-----------------------|
--------------------------|--------------------------|


--------------------------|-------------------|
--------------3-----------|-------------------|
--------4--------4-----4--|-------------------|
-----4-----4--------4-----|-------------------|
--2-----------------------|--2----------------|
--------------------------|-------------------|


|---------------------------|-------------------------|
|---------------2-----------|-------------5-----------|
|*-----------2-----2-----2--|-------6--------6-----6--|
|*--------4-----------4-----|----------6--------6-----|
|------4--------------------|--4----------------------|
|---2-----------------------|-------------------------|


-------------------------|--------------------------|
-------------7-----------|--------------------------|
-------7--------7-----7--|-----6-----------6--------|
----------7--------7-----|--------7-----------7-----|
--5----------------------|-----------7-----------7--|
-------------------------|--5-----------4-----------|


--------------------------|--------------------------|
--------------2-----------|--------------5-----------|
-----------2-----2-----2--|--------6--------6-----6--|
--------4-----------4-----|-----6-----6--------6-----|
-----4--------------------|--4-----------------------|
--2-----------------------|--------------------------|


--------------------------|--------------------------|
--------------7-----------|--------------------------|
--------7--------7-----7--|-----6-----------------9--|
-----7-----7--------7-----|--------7-----------7-----|
--5-----------------------|-----------7-----7--------|
--------------------------|--5-----------4-----------|


----------------------|-----------------------||
-----------5----------|-----------7-----------||
--------7-------------|--------9-------------*||
-----7----------------|-----9----------------*||
--5-------------------|--7--------------------||
----------------------|-----------------------||

SOLO


--14--17--16--17--16------------|----------------------|
------------------------17--14~-|----------------------|
--------------------------------|--------------6r------|
--------------------------------|-----------6-------6--|
--------------------------------|--------4-------------|
--------------------------------|----------------------|


---------------------|--------------------------|
---------------------|--15b---15----14----15----|
---------------------|--------------------------|
--7----6-------------|--------------------------|
----------5----------|--------------------------|
---------------------|--------------------------|


----------------------------|
--14------------------------|
--------14----------14b-13--|
------------16~-------------|
----------------------------|
----------------------------|


-------------------------------------|
-------------------------------------|
-------------------------------13-14-|
------14--------------14-16-17-------|
----------16----16-17----------------|
-------------------------------------|


---------------------------|
---------------------------|
--14----13--11----11--9----|
---------------------------|
---------------------------|
---------------------------|


--------------------------|--------------------------|
--------------7-----------|--------------------------|
--------7--------7-----7--|-----6-----------------9--|
-----7-----7--------7-----|--------7-----------7-----|
--5-----------------------|-----------7-----7--------|
--------------------------|--5-----------4-----------|


----------------------|----------------------|
-----------5----------|-----------7----------|
--------7-------------|--------9-------------|
-----7----------------|-----9----------------|
--5-------------------|--7-------------------|
----------------------|----------------------|


-------------------||
--0----------------||
--0----------------||
--0----------------||
--0----------------||
--0----------------||
Compositor Tony Kakko
Colaboración y revision:
  • Gustavo Kuhn
541 reproducciones
    • ½ Tom
    • A
    • Bb
    • B
    • C
    • Db
    • D
    • Eb
    • E
    • F
    • F#
    • G
    • Ab
  • Adicionar à lista

    0 comentarios

    Mostrar mais comentários

    ¿Conseguiste tocar?

    0 Tocaron 0 Ainda não

    Grave um vídeo tocando The Misery e mande pra gente!

    00:00 / 00:00
    outros vídeos desta música
    repetir qualidade Automático
    Outros vídeos desta música
    00:00 / 00:00
    Automático
    OK