Cifra Club

Aprenda

Under Your Tree

Sonata Arctica

Tablatura: Principal (guitarra)
Tom: F
1/2 abaixo

Guitarra Acústica:

Intro: A#9   C   Dm   C   A#9   C   G     A#9   C   Dm  F  C     A#9   C   Dm

Verso 1:

|----------5-----------5------------5----------------------------3----------|
|--------6-----------6------------6----------5--------3--------3---3--------|
|------7-----------7------------7----------5--------3--------3-------3------|
|----7-----------7------------7----------5--------3--------5----------5---5-|
|--5-----------5------------5----------3--------1---------------------------|
|--------------------------------------------------------3--------------3---|

|------3---------------3--------------1------------|
|----3---3-----------3---3----------1----------5---|
|--3-------3-------3-------3------2----------5-----|
|------------5---5-----------5--3----------5-------|
|----------------------------------------3---------|
|--------------3-----------------------------------|

Verso 2:

Dm      C  A#  Gm    F  C

Ponte 1:

C#5   A#9   Fm   Am   Dm   A#9   Fm   Am   Dm

Refrão 1: 

1 A#9   C   Dm   C   A#9   C   G     A#9   C   Dm  F  C     A#9   C   Dm

Guitarra Distorção:  

|----------------------------------------------------------------
|----------------------------------------------------------------
|----5---7---9---7-----5---7----------5---7---9---7------5---7---
|----5---7---9---7-----5---7---7------5---7---9---7------5---7---
|----3---5---7---5-----3---5---7------3---5---7---5------3---5---
|------------------------------5---------------------------------  

Ponte 2:

|-------------------------------------------------------------|
|-------------------------------------------------------------|
|--2------------5--------------2-------------5------5------\--|
|--2-----2------5------5-------2------2------5------5------\--|
|--0-----2------3------5-------0------2------3------3------\--|
|--------0-------------3--------------0-----------------------|

Ponte 3:

Sem guitarra no começo mas ela entra aos 3:07 

|-----1-1-------1-1-------------4-4-------1-1-------1-1-------1-1------4-4-------6~-|
|-----1---1-----1---1-----------4---4-----1---1-----1---1-----1---2----4---4-----6~-|
|-----3-----3---3-----3---------6-----6---3-----3---3-----3---2-----3--6-----6---8~-|
|-----3---------3---------------6---------3---------3---------3--------6---------8~-|
|-----1---------1---------------4---------1---------1------------------4---------6~-| 
|-----------------------------------------------------------------------------------|

Guitarra com distorção:

----------------------------------|
----------------------------------|
--3-------------------------------|
--3------6------3----------4---6--|
--1------6------3----------4---6--|
---------4------1----------2---4--|

Ponte 4:

Aqui Jani usa uma guitarra de 7 cordas

|------------------------------------------------------------|
|------------------------------------------------------------|
|------------------------------------------------------------|
|----------8------4--------------------8------4~-----4~------|
|---6------8------4------4------6------8------4~-----4~------|
|---6------6------2------4------6------6------2~-----2~------|
|---4--------------------2------4----------------------------|

Refrão 2:

Acordes de baixo para cima:

|--------------------------------------------------------------------------|
|--------------------------------------------------------------------------|
|--------------------------------------------------------------------------|
|---4---6---8---6---4---6----------4---6---8---6---4---6---4---6---8--6--6-|
|---4---6---8---6---4---6---6------4---6---8---6---4---6---4---6---8--4--6-|
|---2---4---6---4---2---4---6------2---4---6---4---2---4---2---4---6-----4-|
|---------------------------4----------------------------------------------|

|-------------------------------------------1~----------------------------|
|-------------------------------------------2~----------------------------|
|-------------------------------------------3~----------------------------|
|--4---6----------4---6---8--6--6---4---6---3~----------------------------|
|--4---6---6------4---6---8--4--6---4---6---1~----------------------------|
|--2---4---6------2---4---6-----4---2---4---------------------------------|
|----------4--------------------------------------------------------------|
Compositor Tony Kakko
Colaboración y revision:
  • Tiago Teruya
  • Fabrício Souza
54 reproducciones
    • ½ Tom
    • A
    • Bb
    • B
    • C
    • Db
    • D
    • Eb
    • E
    • F
    • F#
    • G
    • Ab
  • Adicionar à lista

    0 comentarios

    Mostrar mais comentários

    ¿Conseguiste tocar?

    0 Tocaron 0 Ainda não

    Grave um vídeo tocando Under Your Tree e mande pra gente!

    00:00 / 00:00
    outros vídeos desta música
    repetir qualidade Automático
    Outros vídeos desta música
    00:00 / 00:00
    Automático
    OK