Cifra Club

Aprenda

Victoria's Secret

Sonata Arctica

Tablatura: Versão 2 (guitarra)
tono: A#
Tune down 1/2 step + dropped Db !!!!! (Db Ab Db Gb Bb Eb)

  Teclado harmonia guitarra :
E--15~--17--15--13-----------------------------13-15-13-15~-17--15--13--------------|
B-------------------15--13--11~--11-13-15~--15--------------------------15--13--11~-|
G-----------------------------------------------------------------------------------|
D-----------------------------------------------------------------------------------|
A-----------------------------------------------------------------------------------|
D-----------------------------------------------------------------------------------|

E-/15--13----------13-15-13-15~-17--15--13-----------------------------13-15-13-15~-|
B----------15~--15--------------------------15--13--11~--11-13-15~--15--------------|
G-----------------------------------------------------------------------------------|
D-----------------------------------------------------------------------------------|
A-----------------------------------------------------------------------------------|
D-----------------------------------------------------------------------------------|

                                                      Introduçaõ (Guitarra)
E-17--15--13---------------/15--17--18--17------------------------------------------|
B-------------15--13--11~------------------18--15~--|-------------------------------|
G---------------------------------------------------|--------8-------------------8--|
D---------------------------------------------------|---5----8----8---\7----5----8--|
A---------------------------------------------------|---5----6----8----8----5----6--|
D-------------------------------------------------------5---------8---\7----5-------|

                              (Fim Introdução)   Verso 1
E-----------------------------------------------||----------------------------------|
B-----------------------------------------------||----------------------------------|
G-----------------8--------------------8--------||---5-----------------------/5-----|
D--8-----\7--5----8----8---\7----5-----8----8---||---5---\-1-----3----5------/5---\-|
A--8-----\8--5----6----8----8----5-----6----8---||---3---\-1-----3----5------/3---\-|
D--8-----\7--5---------8---\7----5----------8---||---5---\-1-----3----5--5-5-/5---\-|
                                                                        pm..|

E-----------------------------------------------------------------------------------|
B-----------------------------------------------------------------------------------|
G--------------------/5-----5-----5-------------------------------------------------|
D--1----3----5-------/5-----5-----5----1-----1-----1-----3-----3-----3----/-5-----5-|
A--1----3----5-------/3-3-3-3-3-3-3-3--1-----1-----1-----3-----3-----3----/-5-----5-|
D--1----3----5---5-5-/5-5-5-5-5-5-5-5--1-1-1-1-1-1-1-1---3-3-3-3-3-3-3-3--/-5-5-5-5-|
                pm..|  pm..| pm..| pm   pm..| pm..| pm    pm..| pm..| pm     pm..|

E-----------------------------------------------------------------------------------|
B-----------------------------------------------------------------------------------|
G----------/--5-----5-----5---------------------------------------------------------|
D-----5----/--5-----5-----5-----1-----1-----1-----3-----3-----3----3-----3-----3----|
A-----5----/--3-3-3-3-3-3-3-3---1-----1-----1-----3-----3-----3----3-----3-----3----|
D-5-5-5-5--/--5-5-5-5-5-5-5-5---1-1-1-1-1-1-1-1---3-3-3-3-3-3-3-3--3-3-3-3-3-3-3-3--|
 pm..| pm      pm..| pm..| pm    pm..| pm..| pm    pm..| pm..| pm   pm..| pm..| pm

  Bridge                                    x2   Refrao
E-----------------------------------------------------------------------------------|
B----------------------------------------------|------------------------------------|
G*------------------5---------------------5---*|*--------8-------------------8------|
D*---5----7----8----5---\5-----7-----8----5---*|*---5----8----8---\7----5----8----8-|
A----5----8----8----3---\5-----8-----8----3----|----5----6----8----8----5----6----8-|
D----5----7----8--------\5-----7-----8--------------5---------8---\7----5---------8-|

          x2  Verso 2
E-----------------------------------------------------------------------------------|
B-----------|-----------------------------------------------------------------------|
G----------*|--5-----5-----5--------------------------------------------------------|
D----\-7---*|--5-----5-----5----1-----1-----1-----3-----3-----3----/-5-----5-----5--|
A------8----|--3-3-3-3-3-3-3-3--1-----1-----1-----3-----3-----3----/-5-----5-----5--|
D----\-7-------5-5-5-5-5-5-5-5--1-1-1-1-1-1-1-1---3-3-3-3-3-3-3-3--/-5-5-5-5-5-5-5-5|
                pm..| pm..| pm   pm..| pm..| pm    pm..| pm..| pm     pm..| pm..| pm

E-----------------------------------------------------------------------------------|
B-----------------------------------------------------------------------------------|
G-/-5-----5-----5---------------------------------------------------------/5--------|
D-/-5-----5-----5----1-----1-----1----3-----3-----3----/-5-----5-----5----/5----1---|
A-/-3-3-3-3-3-3-3-3--1-----1-----1----3-----3-----3----/-5-----5-----5----/3----1---|
D-/-5-5-5-5-5-5-5-5--1-1-1-1-1-1-1-1--3-3-3-3-3-3-3-3--/-5-5-5-5-5-5-5-5--/5----1---|
     pm..| pm..| pm   pm..| pm..| pm   pm..| pm..| pm     pm..| pm..| pm

                                                             Intervalo
E-----------------------------------------------------------------------------------|
B--------------------------------|------------|------------|------------------------|
G-------------5------------------|---Bridge---|---Chorus---|----------5\------------|
D---3----5----5----1----3----3~--|------------|------------|----------5\------------|
A---3----5----3----1----3----3~--|------------|------------|--3-3-3-3-3\------------|
D---3----5----5----1----3----3~----------------------------------------------3-3-3-3|
                                                             pm......|      pm......|

E-----------------------------------------------------------------------------------|
B-----------------------------------------------------------------------------------|
G-----------------------------------------3\--------------------5\------------------|
D-3\----------1\-----------5\-------------3\--------------------5\---------------3\-|
A-3\----------1\-----------5\-----1-1-1-1-1\--1-0-------3-3-3-3-3\---------------3\-|
D-3\--1-1-1-1-1\-/-5-5-5-5-5\---------------------3-0--------------------3-3-3-3-3\-|
     pm......|    pm......|      pm......|   pm................|        pm......|

                                                                   Teclado
E-----------------------------------------------------------------------------------|
B----------------------------------------------------------------|------------------|
G-----------------------3\-------------5\------------------------|--/20p0-0-0-19p0-0|
D---------1\------------3\-------------5\---------5\---5\---5\---|------------------|
A---------1\--/-1-1-1-1-1\-----3-3-3-3-3\--3-1-0--5\---5\---5\---|------------------|
D-1-1-1-1-1\--------------------------------------5\---5\---5\----------------------|
 pm......|    pm.......|      pm......|   pm....|

  para guitarra:
E-----------------------------------------------------------------------------------|
B--------------------------------------------------/20-18---------------------------|
G-0-17p0-0-0-19p0-0----.----------------------------------20-19-17--------/19p0-0-0-|
D-------------------\-20--20-19-17\16/17-19-20-17------------------20-19------------|
A-----------------------------------------------------------------------------------|
D-----------------------------------------------------------------------------------|

E-------------------------------------------------------------15-----------/15------|
B----------------------------------------------------------15----18-16-15------13-13|
G17p0-0-0-17p0-0-0-19p0-0----.--------------------------16--------------------------|
D-------------------------\-20--20-19-17\16/17-19-20-17-----------------------------|
A-----------------------------------------------------------------------------------|
D-----------------------------------------------------------------------------------|

E-----------------------------.-----------------------------------------------------|
B-13-18p13-13-13-16p13-13-13-18p13-13-13-18-----------16----15----13----15----16----|
G-------------------------------------------\13-13-13----13----13----13----13----13-|
D-----------------------------------------------------------------------------------|
A-----------------------------------------------------------------------------------|
D-----------------------------------------------------------------------------------|

E-----------------------------------------------------------------------------------|
B-16-15-13-16--------------------------------------------------13-------------------|
G-------------0-0-0-19p0-17p0-15p0-17p0-19-17-15-19--\10-10-10----10-15p10-14p10-15p|
D-----------------------------------------------------------------------------------|
A-----------------------------------------------------------------------------------|
D-----------------------------------------------------------------------------------|

                         Solo harmonico
E----------------------|------------------------------------------------------------|
B----13---15----13-----|---Guitarra entra:---------------------------------.---------|
G-10---10----10----10--|--/17----------15----------14----------15-------/19-19-17-15|
D----------------------|------12-12-12----12-12-12----12-12-12----12-12-------------|
A----------------------|------------------------------------------------------------|
D----------------------|------------------------------------------------------------|
                       |  Teclado:                                                 |
                      E|------------------------------------------------------------|
                      B|------------------------------------------------------------|
                      G|--/20p0--0--0--19p0--0--0--17p0--0--0--19p0--0---.----------|
                      D|------------------------------------------------20-20-19-17\|
                      A|------------------------------------------------------------|
                      D|------------------------------------------------------------|

E-----------------------------------------------------------------------------------|
B-----------------------------------------------------------------------------------|
G\14/15-17-19-15/20-19-17--------------/15----------14----------14----------15------|
D-------------------------20-19-17\16------12-12-12----12-12-12----12-12-12----12-12|
A-----------------------------------------------------------------------------------|
D-----------------------------------------------------------------------------------|
                                                                                    |
E-----------------------------------------------------------------------------------|
B---------------/20-18--------------------------------------------------------------|
G----------------------20-19-17--------/19p0--0--0--17p0--0--0--17p0--0--0--19p0--0-|
D16/17-19-20-17-----------------20-19-----------------------------------------------|
A-----------------------------------------------------------------------------------|
D-----------------------------------------------------------------------------------|

E-----------------------------------15----------------------------------------------|
B---.----------------------------15----18-16-15-/16----------15----------13---------|
G-/19-19-17-15\14/15-17-19-15-16--------------------12-12-12----12-12-12----12-12-12|
D-----------------------------------------------------------------------------------|
A-----------------------------------------------------------------------------------|
D-----------------------------------------------------------------------------------|
                                                                                    |
E-----------------------------------15----------/15---------------------------------|
B--------------------------------15----18-16-15-----13-13-13-18p13-13-13-16p13-13-13|
G---.-------------------------16----------------------------------------------------|
D-\20-20-19-17\16/17-19-20-17-------------------------------------------------------|
A-----------------------------------------------------------------------------------|
D-----------------------------------------------------------------------------------|

E--.--------------------------------------------------------------------------------|
B-15----------15--------------------------------------------------------------------|
G----12-12-12--------------17----15----13----15----17-15-13-17-----------15----14---|
D----------------\13-13-13----13----13----13----13-------------\12-12-12----12----12|
A-----------------------------------------------------------------------------------|
D-----------------------------------------------------------------------------------|

E--.--------------------------------------------------------------------------------|
B-18p13-13-13-18-----------16----15----13----15----16-15-13-16----------------------|
G----------------\13-13-13----13----13----13----13-------------0--0--0--19p-0-17p-0-|
D-----------------------------------------------------------------------------------|
A-----------------------------------------------------------------------------------|
D-----------------------------------------------------------------------------------|

E-------------------------------------------------------------------------||--------|
B-------------------------------------------------------------------------||--------|
G-12----14----15-14-12-15-----------14----12----10----10----10-12-14~--\--||--Teclado|
D----12----12-------------\10-10-10----10----10----10----10---------------||--------|
A-------------------------------------------------------------------------||--------|
D-------------------------------------------------------------------------||--------|
                                                                          ||
E-------------------------------------------------------------------------||
B-----------------------------------13----11----10----10----10-11-13~--\--||
G-15p-0-17p-0-19-17-15-19-\10-10-10----10----10----10----10---------------|| Fim
D-------------------------------------------------------------------------||
A-------------------------------------------------------------------------||
D-------------------------------------------------------------------------||

             Guitarra solo
E-----------------------------------------------------------------------------------|
B----------|------------------------------------------------------------------------|
Grd-Solo---|--/15b(17)~-15b(17)~--r-15-12--14-14b(15)~-r14p12-----------------------|
D----------|--------------------------------------------------15p12\10h13~~-------10|
A----------|----------------------------------------------------------------10h13---|
D-----------------------------------------------------------------------------------|

E-----------------------------------------------------------------------------------|
B-----------------------------------------/10-11-13/15~~-h16p15p13------------------|
G-------------12h15p12h14p12---------------------------------------15p14p12---------|
D-------10h13----------------15p13------------------------------------------15p13p12|
A-10h13----------------------------15p13--------------------------------------------|
D-----------------------------------------------------------------------------------|

E-----------------------------------------------------------------13p11h13p11p10----|
B-----------------------------------------16-15b(16)~-r15-13---------------------10h|
G---------------------------------12~------------------------12~~-------------------|
D\10----------------------10~---------\13~------------------------------------------|
A----13p12p10\8---------------10~---------------------------------------------------|
D---------------13p12p10~-----------------------------------------------------------|

E-----------------------------------------------------------------------------------|
Bh11h13p11p10-----------------------------------------------------------------------|
G-------------12p10p8h10h12p10p8--------------------8h10h12p10p8--------------------|
D--------------------------------12p10p8h10h12p10p8--------------12p10p8h10h12p10p8-|
A-----------------------------------------------------------------------------------|
D-----------------------------------------------------------------------------------|

                                                   Refrão (2)
E-----------------------------------------------------------------------------------|
B-----------------------------------|------------|----------------------------------|
G-----------------------------------|---Refrão---|---5-----------8----\7-----5------|
D-----------------------------------|------------|---5-----6-----8-----8-----5----6-|
A-12p10p8h10h12p10p8----------------|------------|---3-----6-----6----\5-----3----6-|
D--------------------\13p12p10\8p6-------------------------6----------------------6-|

E----------------------------------------------------------------------------||
B----------------------------------------------------------------------------||
G----8----\7-----5-----------8----\7-----5-----------8----\7----5~---\-------|| Fim
D----8-----8-----5-----6-----8-----8-----5-----6-----8-----8----5~---\---\---||
A----6----\5-----3-----6-----6----\5-----3-----6-----6----\5----3~---\---\---||
D----------------------6-----------------------6-------------------------\---||

--------------------------------------------------------------------------------------

  Guitarra durante o solo do Teclado (ritmo)
E-------------------------------------------||
B-------------------------------------------||
G---------------3-----5-----------------3---|| Fim
D---3-----6-----3-----5-----3-----6-----3---||
A---3-----6-----1-----3-----3-----6-----1---||
D---3-----6-----------------3-----6---------||

  Guitarra durante o solo da Guitarra (ritmo)
E--------------------------------------------||
B--------------------------------------------||
G---5-----8-----------------5-----8----------|| Fim
D---5-----8-----3-----5-----5-----8-----3~~--||
A---3-----6-----3-----5-----3-----6-----3~~--||
D---------------3-----5-----------------3~~--||
Composição de Tony Kakko
Colaboración y revision:
  • Gustavo Kuhn
13 reproducciones
    • ½ Tono
    • A
    • Bb
    • B
    • C
    • Db
    • D
    • Eb
    • E
    • F
    • F#
    • G
    • Ab
  • Adicionar à lista

    0 comentarios

    Ver todos os comentários

    ¿Conseguiste tocar?

    0 Tocaram 0 Ainda não

    Grave um vídeo tocando Victoria's Secret e nos envie!

    00:00 / 00:00
    outros vídeos desta música
    repetir qualidade Automático
    Outros vídeos desta música
    00:00 / 00:00
    Automático
    OK