Cifra Club

Becuz

Sonic Youth

Cifrado: Principal (guitarra y guitarra eléctrica)
Selo Cifra Club: esta cifra foi revisada para atender aos critérios oficiais da nossa Equipe de Qualidade.
tono: A
Essa música provavelmente é tocada com outra afinação.
Porém é possível tocá-la com afinação standard nos dois formatos de acordes:


e|------------------------------------|
b|------------------------------------|
g|---11-11---9-9-9---7-7-7---9-9-9----|
d|---11-11---9-9-9---7-7-7---9-9-9----|
a|---9--9----7-7-7---5-5-5---7-7-7----|
e|------------------------------------|

ou...
e|------------------------------------|
b|------------------------------------|
g|---4--4--2--2--2--------------------|
d|---4--4--2--2--2--5--5--5--7--7--7--|
a|------------------5--5--5--7--7--7--|
e|------------------------------------|


Infelizmente eu não tenho a letra.
Se alguém tiver... manda!!!



        Cifrado por Jean R.C. de Almeida        

        Outras tab's, Pink Floyd, Sonic Youth, The Breeders...
        Jean R. C. de Almeida.
Otros videos de esta canción
    2.866 exhibiciones
      • ½ Tono
      • A
      • Bb
      • B
      • C
      • Db
      • D
      • Eb
      • E
      • F
      • F#
      • G
      • Ab
    • Agregar a la lista

    Afinación de cifrado

    Afinador online

      OK