Cifra Club

Chapel Hill

Sonic Youth

Cifrado: Principal (guitarra y guitarra eléctrica)
Selo Cifra Club: esta cifra foi revisada para atender aos critérios oficiais da nossa Equipe de Qualidade.
tono: D



      E  E  E  E  Q       E  Q    E  Q    E  E   4x
E||--------------------|-------------------------||
B||--------------------|-------------------------||
G||*--------4--2--0----|-----5----4--2----0--0--*||
D||*-----0-------------|------------------------*||
G||---0----------------|--2----------------------||
E||--------------------|-------------------------||


  Q    Q    E  E  E  Q    E  E  E  Q    Q     
---------------------------------------------|
---------------------------------------------|
-------4----x--x--x--5----5--5--5--7----5----|
--4----4----x--x--x--5----5--5--5--7----5----|
--4----4----x--x--x--5----5--5--5--7----5----|
---------------------------------------------|

  Q    Q    E  E  E  Q    E  E  E  Q    Q     
---------------------------------------------|
---------------------------------------------|
-------4----x--x--x--5----5--5--5--7----5----|
--4----4----x--x--x--5----5--5--5--7----5----|
--4----4----x--x--x--5----5--5--5--7----5----|
---------------------------------------------|

  Q    Q    E  E  E  Q    E  E  E  Q    Q     
---------------------------------------------|
---------------------------------------------|
-------4----x--x--x--5----5--5--5--7----5----|
--4----4----x--x--x--5----5--5--5--7----5----|
--4----4----x--x--x--5----5--5--5--7----5----|
---------------------------------------------|

  Q    Q    E  E  E  Q    E  E  E  Q    Q     
---------------------------------------------|
---------------------------------------------|
-------4----x--x--x--5----5--5--5--7----5----|
--4----4----x--x--x--5----5--5--5--7----5----|
--4----4----x--x--x--5----5--5--5--7----5----|
---------------------------------------------|

    Q    Q    E  E  E  Q    E  E  E  Q    Q     8x  W                 
|-----------------------------------------------||-------------------|
|-----------------------------------------------||-------------------|
|*-------4----x--x--x--5----5--5--5--7----5----*||--0----------------|
|*--4----4----x--x--x--5----5--5--5--7----5----*||--0----------------|
|---4----4----x--x--x--5----5--5--5--7----5-----||--0----------------|
|-----------------------------------------------||-------------------|

  E  E  E  E  E  E  E   E     E  E  E  Q    E  E  E     H        Q    E  E   
---------------------------|-------------------------|----------------------|
---------------------------|-------------------------|----------------------|
--------2--------3---------|--2--------2----5--5-----|--3--------0----0-----|
-----2--------3------------|-----2--4-------5--5-----|--3--------0-------0--|
--2--------3--------3S--2--|----------------5--5-----|--3--------0----------|
---------------------------|-------------------------|----------------------|

  E  E  E   E  E  E  S S E     W                   E  E  E  H        E   
----------------------------|-------------------|-----------------------|
----------------------------|-------------------|-----------------------|
-----0--2S--3--3--3--3-3-3--|--2----------------|--5--5-----3-----------|
--2-----2S--3--3--3--3-3-3--|--2----------------|--5--5-----3-----------|
--------2S--3--3--3--3-3-3--|--2----------------|--5--5-----3-----------|
----------------------------|-------------------|-----------------------|

                Q    Q    E  E  E  Q    E  E  E  Q    Q     8x
-----------||-----------------------------------------------||
-----------||-----------------------------------------------||
-----------||*-------4----x--x--x--5----5--5--5--7----5----*||
-----------||*--4----4----x--x--x--5----5--5--5--7----5----*||
-----------||---4----4----x--x--x--5----5--5--5--7----5-----||
-----------||-----------------------------------------------||

  W                   E  E  E  E  E  E  E   E     E  E  E  Q    E  E  E   
-------------------|---------------------------|-------------------------|
-------------------|---------------------------|-------------------------|
--0----------------|--------2--------3---------|--2--------2----5--5-----|
--0----------------|-----2--------3------------|-----2--4-------5--5-----|
--0----------------|--2--------3--------3S--2--|----------------5--5-----|
-------------------|---------------------------|-------------------------|

  H        Q    E  E     E  E  E   E  E  E  S S E     W                 
----------------------|----------------------------|-------------------|
----------------------|----------------------------|-------------------|
--3--------0----0-----|-----0--2S--3--3--3--3-3-3--|--2----------------|
--3--------0-------0--|--2-----2S--3--3--3--3-3-3--|--2----------------|
--3--------0----------|--------2S--3--3--3--3-3-3--|--2----------------|
----------------------|----------------------------|-------------------|

  E  E  E  H        E                 E  E  E  E  E  Q    E   
-----------------------|-----------|-------------------------|
-----------------------|-----------|-------------------------|
--5--5-----3-----------|-----------|--------0--------0-------|
--5--5-----3-----------|-----------|-----0-----0--2-------0--|
--5--5-----3-----------|-----------|--0----------------------|
-----------------------|-----------|-------------------------|

  E  E  E  E  E  Q    E     E  E  E  E  E  Q    E     E  E  E  E  E  Q    E   
-------------------------|-------------------------|-------------------------|
-------------------------|-------------------------|-------------------------|
--------0--------0-------|--------0--------0-------|--------0--------0-------|
-----0-----0--2-------0--|-----0-----0--2-------0--|-----0-----0--2-------0--|
--0----------------------|--0----------------------|--0----------------------|
-------------------------|-------------------------|-------------------------|

    E  E  E  E  Q       E  Q    E  Q    E  E   4x
|--------------------|-------------------------||
|--------------------|-------------------------||
|*--------4--2--0----|-----5----4--2----0--0--*||
|*-----0-------------|------------------------*||
|---0----------------|--2----------------------||
|--------------------|-------------------------||

   Q    Q    E  E  Q    E  S S E  E  E   4x
-----------------------------------------||
-----------------------------------------||
*---------------------------------------*||
*--9----9-------------------------------*||
-----------------------------------------||
---7----7----3--2--1----1--1-1-1--2--3---||

   Q    Q    S S S  S  S  Q     S  S  S  S  S  S  S  S  S  4x
-----------------------------------------------------------||
-----------------------------------------------------------||
*--4----4----x-4-x-12-11-10----10-10-10-10-10-10-10-10-10-*||
*--4----4----x-4-x-12-11-10----10-10-10-10-10-10-10-10-10-*||
---4----4----x-4-x-12-11-10----10-10-10-10-10-10-10-10-10--||
-----------------------------------------------------------||

   S  E  S  E  S  E  S S S E  E  E  S S S S S E  S S S S S S S  4x
----------------------------------------------------------------||
----------------------------------------------------------------||
*--3S-4--3S-4--3S-4--3-4-3-7--6--5--5-5-5-7-5-3--3-3-3-3-3-3-3-*||
*--------------------------------------------------------------*||
----------------------------------------------------------------||
----------------------------------------------------------------||

   S  E  S  E  S  E  S S S E  E  E  S S S S S E  S S S S S S S  4x
----------------------------------------------------------------||
----------------------------------------------------------------||
*--3S-4--3S-4--3S-4--3-4-3-7--6--5--5-5-5-7-5-3--3-3-3-3-3-3-3-*||
*--3S-4--3S-4--3S-4--3-4-3-7--6--5--5-5-5-7-5-3--3-3-3-3-3-3-3-*||
---3S-4--3S-4--3S-4--3-4-3-7--6--5--5-5-5-7-5-3--3-3-3-3-3-3-3--||
----------------------------------------------------------------||

  S S S S S S S S S S S S S S S S S S S S S S S S S S S S S S S S  
------------------------------------------------------------------|
------------------------------------------------------------------|
--3-3-3-3-3-3-3-3-3-3-3-3-3-3-3-3-3-3-3-3-3-3-3-3-3-3-3-3-3-3-3-3-|
--3-3-3-3-3-3-3-3-3-3-3-3-3-3-3-3-3-3-3-3-3-3-3-3-3-3-3-3-3-3-3-3-|
--3-3-3-3-3-3-3-3-3-3-3-3-3-3-3-3-3-3-3-3-3-3-3-3-3-3-3-3-3-3-3-3-|
------------------------------------------------------------------|

    E  E  E  E  E  E  E  E  E  E  E  E  E  E  E  E     
|----------------------------------------------------||
|----------------------------------------------------||
|*--------------------------------------------------*||
|*--------------------------------------------------*||
|------3-----3-----3-----3-----3-----3-----3-----3---||
|---0-----0-----0-----0-----0-----0-----0-----0------||

   Q    Q    E  E  E  Q    E  E  E  Q    Q    12x  W                 
-----------------------------------------------||-------------------|
-----------------------------------------------||-------------------|
*-------4----x--x--x--5----5--5--5--7----5----*||--0----------------|
*--4----4----x--x--x--5----5--5--5--7----5----*||--0----------------|
---4----4----x--x--x--5----5--5--5--7----5-----||--0----------------|
-----------------------------------------------||-------------------|

  E  E  E  E  E  E  E   E     E  E  E  Q    E  E  E     H        Q    E  E   
---------------------------|-------------------------|----------------------|
---------------------------|-------------------------|----------------------|
--------2--------3---------|--2--------2----5--5-----|--3--------0----0-----|
-----2--------3------------|-----2--4-------5--5-----|--3--------0-------0--|
--2--------3--------3S--2--|----------------5--5-----|--3--------0----------|
---------------------------|-------------------------|----------------------|

  E  E  E   E  E  E  S S E     W                   E  E  E  H        E   
----------------------------|-------------------|-----------------------|
----------------------------|-------------------|-----------------------|
-----0--2S--3--3--3--3-3-3--|--2----------------|--5--5-----3-----------|
--2-----2S--3--3--3--3-3-3--|--2----------------|--5--5-----3-----------|
--------2S--3--3--3--3-3-3--|--2----------------|--5--5-----3-----------|
----------------------------|-------------------|-----------------------|

-----------|-----------||
-----------|-----------||
-----------|-----------||
-----------|-----------||
-----------|-----------||
-----------|-----------||

Otros videos de esta canción
    593 exhibiciones
      • ½ Tono
      • A
      • Bb
      • B
      • C
      • Db
      • D
      • Eb
      • E
      • F
      • F#
      • G
      • Ab
    • Agregar a la lista

    Afinación de cifrado

    Afinador online

      OK