Cifra Club

Diamond Sea

Sonic Youth

Cifrado: Versão 2 (guitarra y guitarra eléctrica)
Selo Cifra Club: esta cifra foi revisada para atender aos critérios oficiais da nossa Equipe de Qualidade.
tono: Cm
intro:
part 1

E|---------------------------------------|
B|---------------------------------------|
G|---------------------------------------|
D|---12--12--12--14----------------------|
A|----0---0---0---0---14--16--16--16-----|
E|---------------------0---0---0---0-----|
play part one 4 times, followed by (part 2)

E|-------------------------------------------------------------------|
B|-------------------------------------------------------------------|
G|-------------------------------------------------------------------|
D|-------------------------------------------------------------------|
A|---16-14-12-14-----12----14/16---16-14-12-14------12---------------|
E|---------------12-----12---------------------10------10------------|

E|------14/16-----14-----12-------|
B|--------------------------------|
play that part twice


for the verses, T's plays nothing

chorus: play part 2 of intro

break:
(part 1)
E|-------------------------------------------|
B|-------------------------------------------|
G|-------------------------------------------|
D|-------------------------------------------|
A|-------------------------------------------|
E|------12/14\12----12/15\12----12/14\12-----|

(part 2) w/ distortion play twice
E|-----------------------------------------------------------------|
B|-----------------------------------------------------------------|
G|-----------------------------------------------------------------|
D|-----------------------------------------------------------------|
A|---7-7-7\4--4--4--4/11--11-11-11---------------------------------|
E|----------------------------------12-12-12--10-10-10---7--7--7-7-|

after that part, basically just improv (that's what he does live) the next
section, which consists of various harmonics on the 5th, 7th and 12th
frets. He plays that for awhile, until he goes up to a tremelo picked
section for awhile

G|-----19------17-------|
D|------0-------0-------|

then, it breaks down to noise for a bit..
more to come later..


LEE'S PART   tuning:  EEBBEF#


intro/verse:

E|--15---13---12---10--| w/ slight delay
B|----------------------|
G|----------------------|
D|----------------------|
A|----------------------|
E|----------------------|

2nd part of intro/chorus:

E|------------------------------------------| -------|
B|-------------------------------------------| -------|
G|-------------------------------------------| PA Y   -------|
D|--------5\7--5------------8\10-8----8------| TWICE  --7-0--|
A|------------------10-----------------------| -------|
E|---0---------------------------------------| -------|

the choruses have some slight variation, but not much!

INSTRUMENTAL:

E|---5\7--7-7-5--5--5---5\8-8-8-8/5-5--5---5--5\7--7-7-5--5--5--|
B|----0----0-0-0--0--0---0---0-0-0---0--0---0--0----0-0-0--0--0--|
G|----5\7--7-7-5--5--5---5\8-8-8-8/5-5--5---5--5\7--7-7-5--5--5--|
D|---------------------------------------------------------------|
A|---------------------------------------------------------------|
E|---------------------------------------------------------------|

E|---------------------------------------|
B|----------------------------------------|
G|---10---10\7--7-7-7--7\14--14-14-14-14--|
D|---10---10\7--7-7-7--7\14--14-14-14-14--|
A|---10---10\7--7-7-7--7\14--14-14-14-14--|
E|---10---10\7--7-7-7--7\14--14-14-14-14--|

E|--------0----------------3--------------------7---------------|
B|-------------0----------------3------------7-----7-------------|
G|-----------------0----------------3------7---7-----7-----------|
D|-----0----------------3------------------7-----------7--7-7-7--|
A|-------------------------------------3\7-------------7--7-7-7--|
E|---0---0---0---0----3---3---3---3----3\7-------------7--7-7-7--|

D PEAT BOTH THOSE SEGMENTS...

E|----------------------------------------------------|
B|-----------------------------------------------------|
G|--7-7-7-7-7-7-7-7-7-7-7-7-7-6-6-6-6-6-6-6-6-6-6-6-6--|
D|--7-7-7-7-7-7-7-7-7-7-7-7-7-6-6-6-6-6-6-6-6-6-6-6-6--|
A|-----------------------------------------------------|
E|-----------------------------------------------------|

E|----------------------------------------------------|
B|-----------------------------------------------------|
G|--7-7-7-7-7-7-7-7-7-7-7-7-7-8-8-8-8-8-8-8-8-8-8-8-8--|
D|--7-7-7-7-7-7-7-7-7-7-7-7-7-8-8-8-8-8-8-8-8-8-8-8-8--|
A|-----------------------------------------------------|
E|-----------------------------------------------------|

E|-----------------------------------------------------------------|
B|------------------------------------------------------------------|
G|------------------------------------------------------------------| PA Y TWICE
D|------------------------------------------------------------------|
A|--8-8-8-8-8-8-8-8-8-8-8-8-8-8-8-10-10-10-10-10-10-10-10-10-10-10--|
E|--8-8-8-8-8-8-8-8-8-8-8-8-8-8-8-10-10-10-10-10-10-10-10-10-10-10--|

E|--------------------------------------------------------------------------|
B|--15-15-15-15-15-15-15-15-15-15-15-15-12-12-12-12-12-12-12-12-12-12-12-12--|
G|--15-15-15-15-15-15-15-15-15-15-15-15-12-12-12-12-12-12-12-12-12-12-12-12--|
D|--15-15-15-15-15-15-15-15-15-15-15-15-12-12-12-12-12-12-12-12-12-12-12-12--|
A|--15-15-15-15-15-15-15-15-15-15-15-15-12-12-12-12-12-12-12-12-12-12-12-12--|
E|--15-15-15-15-15-15-15-15-15-15-15-15-12-12-12-12-12-12-12-12-12-12-12-12--|

Keep repeating that riff, start including the notes on the F# string too.

Eventually he moves into a pattern like this (bottom 5 strings stay the
same, play this on F#):

E|---15--15--15-17--12--12-12-12-12-12--|

then:

E|----------------------------------------------------|
B|-----------------------------------------------------|
G|--7-7-7-7-7-7-7-7-7-7-7-7-7-6-6-6-6-6-6-6-6-6-6-6-6--|
D|--7-7-7-7-7-7-7-7-7-7-7-7-7-6-6-6-6-6-6-6-6-6-6-6-6--|
A|-----------------------------------------------------|
E|-----------------------------------------------------|

E|----------------------------------------------------|
B|-----------------------------------------------------|
G|--7-7-7-7-7-7-7-7-7-7-7-7-7-8-8-8-8-8-8-8-8-8-8-8-8--|
D|--7-7-7-7-7-7-7-7-7-7-7-7-7-8-8-8-8-8-8-8-8-8-8-8-8--|
A|-----------------------------------------------------|
E|-----------------------------------------------------|

E|-----------------------------------------------------------------|
B|------------------------------------------------------------------|
G|------------------------------------------------------------------| PA Y TWICE
D|------------------------------------------------------------------|
A|--8-8-8-8-8-8-8-8-8-8-8-8-8-8-8-10-10-10-10-10-10-10-10-10-10-10--|
E|--8-8-8-8-8-8-8-8-8-8-8-8-8-8-8-10-10-10-10-10-10-10-10-10-10-10--|

then start droning on a dissonant chord like this:

E|-----|
B|--13--|
G|--12--| change the fingering a bit, just bend a skronky chord around...
D|--11--|
A|--10--|
E|--10--|

this spills out into the final verse...

which is a little different than before... w/ delay:

E|---15---13---17-------15---13---12-------15---13---17----|
B|----------------------------------------------------------|
G|----------------------------------------------------------|
D|----------------------------------------------------------|
A|----------------------------------------------------------|
E|----------------------------------------------------------|
Otros videos de esta canción
    18 exhibiciones
      • ½ Tono
      • Am
      • Bbm
      • Bm
      • Cm
      • C#m
      • Dm
      • Ebm
      • Em
      • Fm
      • F#m
      • Gm
      • G#m
    • Agregar a la lista

    Afinación de cifrado

    Afinador online

      OK