Cifra Club

Mildred Pierce

Sonic Youth

Cifrado: Principal (guitarra y guitarra eléctrica)
Selo Cifra Club: esta cifra foi revisada para atender aos critérios oficiais da nossa Equipe de Qualidade.
tono: G
Tuning: STANDARD  EADGBE (yes!)

intro:

E|---------------------------
B|--0-0-0-0-0-0-0-0-0-0-0-0--
G|--4-4-4-4-4-4-4-4-4-4-4-4-- etc
D|---------------------------
A|---------------------------
E|---------------------------

then:

E|---------------------------------------------------------------
B|--0-0-0-0-0-0-0-0-0-0-0-0-0-0-0-0-0-0-0-0-0-0-0-0-0-0-0-0-0-0--
G|--4-4-4-4-4-4-4-4-5-5-5-5-5-5-5-5-5-5-5-5-5-5-5-5-5-5-5-5-5-5--
D|----------------------------------7-7-7-7-7-7-7-7-7-7-7-7-7-7--
A|---------------------------------------------------------------
E|---------------------------------------------------------------

then one guitar plays:

E|-------------------------------------------------------------
B|--0-0-0-0-0-0-0-0-0-0-0-0-0-0-0-0-0-0-0-0-0-0-0-0-0-0-0-0-0--
G|--7-7-7-7-7-7-7-7-7-7-7-7-7-7-5-5-5-5-5-5-5-5-5-5-5-5-5-5-5--
D|-------------------------------------------------------------
A|-------------------------------------------------------------
E|-------------------------------------------------------------

while the other plays:

E|--0-0-0-0-0-0-0-0-0-0-0-0-0-0-0-0-0-0-0-7-0-7-0-7-0-7-0-7-0-7-0-7-0-7-0-
B|--0-0-5-0-5-0-5-0-5-0-5-0-5-0-5-0-5-0-0-0-0-0-0-0-0-0-0-0-0-0-0-0-0-0-0-
G|--7-7-7-7-7-7-7-7-7-7-7-7-7-7-7-7-7-5-5-5-5-5-5-5-5-5-5-5-5-5-5-5-5-5-5-
D|------------------------------------------------------------------------
A|------------------------------------------------------------------------
E|------------------------------------------------------------------------

then:

E|-----------------------------------------------------------------------------
B|-----------------------------------------------------------------------------
G|--8-8-8-8-8-8-8-8-8--9--9--9--9--9--9--9--9-6-6-6-6-6-6-6-6-6-6-6-6-6-6-6-6--
D|--9-9-9-9-9-9-9-9-9-10-10-10-10-10-10-10-10-7-7-7-7-7-7-7-7-7-7-7-7-7-7-7-7--
A|--9-9-9-9-9-9-9-9-9-10-10-10-10-10-10-10-10-7-7-7-7-7-7-7-7-7-7-7-7-7-7-7-7--
E|--7-7-7-7-7-7-7-7-7--8--8--8--8--8--8--8--8-5-5-5-5-5-5-5-5-5-5-5-5-5-5-5-5--

then:

MILDREEEEEEEDDD PIEEEEEEEEEEEEEEERCEEEEEEEEEEEEEEEEEEEEeeeeeeeeeeeeeeeeeeee
Otros videos de esta canción
    260 exhibiciones
      • ½ Tono
      • A
      • Bb
      • B
      • C
      • Db
      • D
      • Eb
      • E
      • F
      • F#
      • G
      • Ab
    • Agregar a la lista

    Afinação da cifra

    Afinador online

      Ops (: Contenido disponible solo en portugués.
      OK