Cifra Club

Sunday

Sonic Youth

Tab de bajo: Principal
Selo Cifra Club: esta cifra foi revisada para atender aos critérios oficiais da nossa Equipe de Qualidade.
tono: Afinación:
intro 

G----------------------
D----------------------
A--8----11----8----13--
E----------------------

drums kick in:

G-----------------------
D-----------------------
A-------------------14--
E--11----2----11--------

intro riff again:

G--------------------
D--------------------
A--------------------
E--1----4----1----6--

then:

G-----------------------------------
D-----------------------------------
A-------------------14----11-----8-- hang on F
E--11----2----11--------------------

verse:

G-------------
D-------------
A--8----11---- 
E-------------

or play the low octave:

G---------
D---------
A---------
E--1---4--
Otros videos de esta canción
    742 exhibiciones

    Afinación de cifrado

    Afinador online

    OK