Cifra Club

Cuanto me cuesta

Sónica

Cifrado: Principal (guitarra y guitarra eléctrica)
tono: Gm
Intro despues del Go de Jean Carlos:
Riff 1

E|----------------------------------------------------------|
B|----------------------------------------------------------|
G|------7/8-8---------7/8-8---------7/8-8-------------------|
D|---8--7/8-8------8--7/8-8------8--7/8-8-----555--6666-----| x2
A|---8--5/6-6------8--5/6-6------8--5/6-6-----555--6666-----|
E|---6-------------6-------------6------------333--4444-----|

Bb
Hoy intento una ves mas
D
trate de recordar
Eb
cuando fue la ultima vez
F
que pense en ti
Bb
no fue tan dificil ver
D
tan dificil ver
Eb
que lo hago a diario
F
y que no lo puedo esconder

Riff 1

Bb
Hoy me di cuenta que
D
lo que sentia por ti
Eb
era mas fuerte que
F
lo que sentias por mi
Bb                       D
no fue tan dificil creer(tan dificil creer)
Eb
que lo hago a diario
F
y que no lo puedo esconder


Bb        D         Eb          F
Cuando yo pienso en todo lo que dije
Bb        D         Eb          F
Cuando yo pienso en todo lo que hicistes tu por mi

(Coro)
Bb        D
Cuanto me cuesta
G          Eb
(tratar de olvidar)
Bb        D
Cuanto me cuesta
G          Eb
(dejar de pensar)
Bb        D
hoy es un dia
G          Eb
que razonaria
Bb        D   G          Eb
solo pensaba tu y yo una ves (bis)


Bb        D         Eb          F
Cuando yo pienso en todo lo que dije
Bb        D         Eb          F
Cuando yo pienso en todo lo que hicistes tu por mi


Coro)
Bb        D
Cuanto me cuesta
G          Eb
(tratar de olvidar)
Bb        D
Cuanto me cuesta
G          Eb
(dejar de pensar)
Bb        D
hoy es un dia
G          Eb
que razonaria
Bb        D   G          Eb
solo pensaba tu y yo una ves (bis)

Riff 1
E|-----------------------------------------|

En todos los Riff 1 la segunda guitarra hace esto:

E|----------------------------------------------------------|
B|----------------------------------------------------------|
G|---10-7/8-8------10-7/8-8------10--7/8-8------------------|
D|---10-7/8-8------10-7/8-8------10--7/8-8----555--6666-----| x2
A|---8--5/6-6------8--5/6-6------8---5/6-6----555--6666-----|
E|--------------------------------------------333--4444-----|
Composición de Sonica
    • ½ Tono
    • Am
    • Bbm
    • Bm
    • Cm
    • C#m
    • Dm
    • Ebm
    • Em
    • Fm
    • F#m
    • Gm
    • G#m
  • Agregar a la lista

    0 comentarios

    Ver todos los comentarios

    ¿Lograste tocar?

    0 Tocaron 0 Aún no

    ¡Graba un video tocando Cuanto me cuesta y envíanoslo!

    00:00 / 00:00
    Outros vídeos desta música
    Repetir Calidad Automático
    Outros vídeos desta música
    00:00 / 00:00
    Automático
    OK