Cifra Club

El Niño

Sónica

Cifrado: Principal (guitarra y guitarra eléctrica)
tono: B
B  - G#m   - E  - F# 

E|----------------------------|
B|---------12-12-11-11-9-9----|
G|--11-11---------------------| -x6-
D|----------------------------|
A|----------------------------|
E|----------------------------|

E|----------------------------|
B|---------12-12-11-11-9-9-7--|
G|--11-11---------------------|
D|----------------------------|
A|----------------------------|
E|----------------------------|


B 
Que es todo esto

               G#m  
aun lo espero hoy

y siento que vuelvo a ser

                    E 
el niño de antes y que

                 F# 
solo puede depender

                 B 
de creer y entender

que no he vuelto ya a saber

                      G#m  
si controlare yo ese ayer

despertar y recorrer

                  E 
este mundo sin volver

               F# 
escapar y conocer

esas cosas que olvide...



B  - G#m   - E  - F# 


que es lo que es esto
aun no espero no
y pienso que vuelvo a ser
el niño de antes y que
solo puede depender
de creer y entender
que no puedo ya a saber
si controlare ese ayer
despertar y recorrer
este mundo sin volver
escapar y conocer
esas cosas que olvide


E                F# 
pero nunca encontré

ya que nunca sabré

E                  F# 
por que nunca encontré

las cosas que olvide

B         G#m  
Nanananana nanananana

B         G#m  
Nanananana nanananana

E                F# 
pero nunca encontré

las cosas que olvide...


B  - G#m   - E  - F#  - B 

E|----------------------------|
B|---------12-12-11-11-9-9----|
G|--11-11---------------------| -x6-
D|----------------------------|
A|----------------------------|
E|----------------------------|

E|----------------------------|
B|---------12-12-11-11-9-9-7--|
G|--11-11---------------------|
D|----------------------------|
A|----------------------------|
E|----------------------------|

E|--((| QUE VIVA EL TALENTO VENEZOA NO))--
B|--((| Robertck            ))--
Compositor não encontrado.
    • ½ Tono
    • A
    • Bb
    • B
    • C
    • Db
    • D
    • Eb
    • E
    • F
    • F#
    • G
    • Ab
  • Agregar a la lista

    0 comentarios

    Ver todos los comentarios

    ¿Lograste tocar?

    0 Tocaron 0 Aún no

    ¡Graba un video tocando El Niño y envíanoslo!

    00:00 / 00:00
    Outros vídeos desta música
    Repetir Calidad Automático
    Outros vídeos desta música
    00:00 / 00:00
    Automático
    OK