Cifra Club

Cadeias Quebrar

Soraya Moraes

Cifrado: Tablatura (guitarra y guitarra eléctrica)
tono: A
 
  F#m  D9  A9  E


E|-------------------------------------------------------------------|
B|-------------------------------------------------------------------|
G|-------------------------------------------------------------------|
D|---2--4/6~--------2--4/6~------------------------------------------| (x2)
A|--2------2~------2-------2~----------------------------------------|
E|-------------------------------------------------------------------|

  Pode se fazer no final de cada Fraze
E|-------------------------------------------------------------------|
B|-------------------------------------------------------------------|
G|-----------------------------9-------------------------------------|
D|----11---9-11~------11---9-11--------------------------------------| (x2)
A|--12--12----------12--12-------12~---------------------------------|
E|-------------------------------------------------------------------|


 Interlúdio: F#m  D9  A9  E  (2x)
        
E|------------------------------12-----------------------------------|
B|----14--12--14~-----14---12-14-------------------------------------|
G|--14--14----------14--14---------14--------------------------------|
D|-------------------------------------------------------------------| (x2)
A|-------------------------------------------------------------------|
E|-------------------------------------------------------------------|

E|-------------------------------------------------------------------|
B|--14-15-14-12------------------------------------------------------| (x4)
G|--14-14-14-14------------------------------------------------------|
D|-------------------------------------------------------------------|
A|-------------------------------------------------------------------|
E|-------------------------------------------------------------------|
00:00 / 00:00
Otros videos de esta canción
Repetir
Otros videos de esta canción
Composición de Will Reagan
Colaboración y revisión:
  • Peterson Hilario
71 vistas
    • ½ Tono
    • A
    • Bb
    • B
    • C
    • Db
    • D
    • Eb
    • E
    • F
    • F#
    • G
    • Ab
  • Agregar a la lista

    0 comentarios

    Ver todos los comentarios
    00:00 / 00:00
    OK