Cifra Club

Las cosas del querer

Sordromo

Cifrado: Principal (guitarra y guitarra eléctrica)
tono: Am
Em        G             Dm     Am       E 
Con la cabeza en la almohada caigo en razón
    Am          Dm  Em  D 
y pierdo la certeza,
de que mañana amanezca como hizo ayer
o como te parezca.
(Tab 1)
Cuando saldra el sol, que caliente en mi vereda
y me vuelva a la vida

                    E5 *          D5   A5 
Son las cosas del querer pero estoy muriendo
                    C5      E5 *       D5   A5 
son las cosas del crecer pero me estoy hundiendo
Son las cosas del querer pero estoy muriendo
son las cosas del crecer pero me estoy hundiendo

Intro


Desde tu sueño se siente tu imaginación
choca con mi suerte
es el orgullo que muere viéndote partir
el día a pedazos
Cuando saldra el sol, que caliente en mi vereda
y me vuelva a la vida


Estribillo

Solo

Estribillo

Fin


Descripción de las tablaturas:

Intro:


E|-5-5-3-3-5-5-3-5-|-----------5-5-3-5-5-3-|
B|-5-5-3-3-5-5-3-5-|-3-5s7-7-5-5-5-3-5-5-3-|
G|-----------------|-3-5s7-7-5-------------|
D|-----------------|-----------------------|
A|-----------------|-----------------------|
E|-----------------|-----------------------|


Tab 1

A5  - F5  - C5  - A5  - F5  - D5  - A5 .

E|-----------------------------|
B|-----------------------------|
G|-----------------------------|
D|--7--15--13--12--10--12--10--|
A|-----------------------------|
E|-----------------------------|

E|-------------------------------------------|
B|-------------------------------------------|
G|-------------------------------------------|
D|--7--15--13--12--13--15--13--12--13--12--7-|
A|-------------------------------------------|
E|-------------------------------------------|
00:00 / 00:00
Otros videos de esta canción
Repetir
Otros videos de esta canción
Compositor no encontrado.
86 exhibiciones
    • ½ Tono
    • Am
    • Bbm
    • Bm
    • Cm
    • C#m
    • Dm
    • Ebm
    • Em
    • Fm
    • F#m
    • Gm
    • G#m
  • Agregar a la lista
    00:00 / 00:00
    OK