Cifra Club

1 Metro e 65

Sorriso Maroto

Cifrado: Principal (guitarra y guitarra eléctrica)
tono: D
[Intro] Gm6  D9

E|-------------------------------------------------------------------|
B|--5--3---------5--3----------5--3---------5--3---------------------|
G|--------3--2---------3--2----------3--2---------3--2---------------|
D|-------------------------------------------------------------------|
A|-------------------------------------------------------------------|
E|-------------------------------------------------------------------|

E|-------------------------------------------------------------------|
B|--3--5--------------3--5-------------------------------------------|
G|------------4--2---------------4--2--------------------------------|
D|---------4-----------------4---------------------------------------|
A|-------------------------------------------------------------------|
E|-------------------------------------------------------------------|

 Gm6
Hoje acordei, e me lembrei
Do que sonhei, por que não sei
 D7M(9)
Me fez tão mal, sonho ruim, não foi legal
 Gm6
Perdia você não sei por quê
Nem como foi... aconteceu!
D7M(9)
Eu não gostei, foi tão real, até doeu
G7M        Em7/9
Esse medo, agonia
    D7M(9)     A/C#     Bm7    Bm7/A
Me fez pensar na nossa vida
G7M       Em7/9    D9    A/C#   Bm7   Bm7/A
Eu te amo e devia dizer todo dia

[Solo]

E|----------7----------7---------------------------------------------|
B|--7--5--------7--5-------------------------------------------------|
G|-------------------------------------------------------------------|
D|-------------------------------------------------------------------|
A|-------------------------------------------------------------------|
E|-------------------------------------------------------------------|

 G9                Gm6        G7+ D/F# Em7 D
Meu mundo tem um jeito todo seu
    G7M
Um metro e sessenta e cinco
         Em7/9
O salto sete o sapato cinco
            D7M(9)              A/C#
No sol seus olhos mudam de cor
           Bm7(11)               A9
Demora no banho e fazendo amor (eu sei)
 G7M
Sei te fazer sorrir
          Em7/9
Que a TV não te deixa dormir
                 D7M(9)        A/C#
Não quer ver filmes de entristecer
       Bm7(11)      Bm7/A       Em7(11)
Não me imagino envelhecer sem você
                   Gm6 (D9/F# Em7 G/A)
Eu te amo e te escolhi           pra viver

E|-------------------------------------------------------------------|
B|--5--3---------5--3----------5--3---------5------------------------|
G|--------3--2---------3--2----------3--2----------------------------|
D|-------------------------------------------------------------------|
A|-------------------------------------------------------------------|
E|-------------------------------------------------------------------|

E|----------7----------7---4-----------------------------------------|
B|--7--5--------7--5-------3-----------------------------------------|
G|-------------------------2-----------------------------------------|
D|-------------------------4-----------------------------------------|
A|-------------------------------------------------------------------|
E|-------------------------------------------------------------------|
Composición de Sérgio Jr / Thiago Silva
Colaboración y revisión:
1.187 vistas
    • ½ Tono
    • A
    • Bb
    • B
    • C
    • Db
    • D
    • Eb
    • E
    • F
    • F#
    • G
    • Ab
  • Agregar a la lista

    0 comentarios

    Ver todos los comentarios

    ¿Lograste tocar?

    13 Tocaron 1 Aún no

    ¡Graba un video tocando 1 Metro e 65 y envíanoslo!

    00:00 / 00:00
    Outros vídeos desta música
    Repetir Calidad Automático
    Outros vídeos desta música
    00:00 / 00:00
    Automático
    OK