Cifra Club

Clichê

Sorriso Maroto

Cifrado: Principal (guitarra y guitarra eléctrica)
tono: F
[Intro]

E|-----------5-------5--|------------5-------5--|
B|------8------8---8---8|--------8-----8---8---8|
G|----5---5------5------|------5---5-----5------|
D|----------------------|-----------------------|
A|--8-------------------|-8-7-------------------|
E|----------------------|-----------------------|

E|-----------5-------5--|------------5-------5--|
B|------8------8---8---8|--------8-----8---8---8|
G|----5---5------5------|------5---5-----5------|
D|----------------------|-----------------------|
A|--8-------------------|-8-7-------------------|
E|----------------------|-----------------------|

Am7/5+                     Am7
sem você passei a ver o que nunca enxerguei
Am7/5+                     Am7
sem você me dei um tempo e me repensei
Am7/5+                          Am7
eu me vi naquelas folhas de outra estação
Am7/5+                            Am7
que sem vida são varridas secas pelo chão
Am7/5+                  Am7
Acreidto hoje em coisas que me ensinou
Am7/5+                Am7
Acredito que dias melhores tão por vir
Am7/5+                Am7
E amores de verdade surgem num olhar
Am7/5+                 Am7          Am7/5+  Am7
Acredito que agente possa ser feliz

Dm7
Desculpe chegar sem avisar
Em7
Mais eu não consigo esquecer
 Fm7                C7+       G
Voce dizendo que já não me ama
F/A
Ensaiei mil coisas pra falar
    Em7
Pra mim são dificeis de dizer
Fm7                           F C7+  G
Em sonhos de amor sua voz me chama
        F/A           Gsus 
Sei que parece clichê preciso de você

F7+                        Gsus
Meu amor eu tive que perder pra acordar
 Gsus9
Eu sei que foi dificil de lhe dar
C7+               G/B           Am6     
Sempre fechado sem falar de amor de sol de flor
F7+                 Gsus
Vim contar que ando amargando a solidão
Gsus9                 C C             G/B G/B
Você me fez sentir um coração pulsar doer
        A6 A6        ( B|-6--5-3-| )
Mesmo se não voltar queria te dizer
F7+                G7+ Bb7+ A7+ Gsus
  Que aprendi a ser melhor...       com voce

E|-----------5-------5--|------------5-------5--|
B|------8------8---8---8|--------8-----8---8---8|
G|----5---5------5------|------5---5-----5------|
D|----------------------|-----------------------|
A|--8-------------------|-8-7-------------------|
E|----------------------|-----------------------|

E|-----------5-------5--|------------5-------5--|
B|------8------8---8---8|--------8-----8---8---8|
G|----5---5------5------|------5---5-----5------|
D|----------------------|-----------------------|
A|--8-------------------|-8-7-------------------|
E|----------------------|-----------------------|

Dm7
Desculpe chegar sem avisar...   ate o fim
F7+                        Gsus
Meu amor eu tive que perder pra acordar... até o fim
Composición de Sergio Jr. / Thiago Silva
Colaboración y revisión:
1.252 vistas
  • Simplificar cifrado
    • ½ Tono
    • A
    • Bb
    • B
    • C
    • Db
    • D
    • Eb
    • E
    • F
    • F#
    • G
    • Ab
  • Agregar a la lista

    0 comentarios

    Ver todos los comentarios

    ¿Lograste tocar?

    8 Tocaron 0 Aún no

    ¡Graba un video tocando Clichê y envíanoslo!

    00:00 / 00:00
    Outros vídeos desta música
    Repetir Calidad Automático
    Outros vídeos desta música
    00:00 / 00:00
    Automático
    OK