Cifra Club

Coisa de Momento

Sorriso Maroto

Cifrado: Principal (guitarra y guitarra eléctrica)
tono: A
[Intro]

   A7M
E|------------------------------------------|
B|-2-3\2\0----------------------------------|
G|-1-------2\1/2/4--------------------------|
D|-2----------------------------------------|
A|-0----------------------------------------|
E|------------------------------------------|

    A7M/F#
E|------------------------------------------|
B|-2-3\2\0----------------------------------|
G|-2-------2\1/2/4--------------------------|
D|-2----------------------------------------|
A|------------------------------------------|
E|-2----------------------------------------|

    Bm7
E|------------------------------------------|
B|-2-3\2----3-------------------------------|
G|-2------4\2-------------------------------|
D|-4--------4-------------------------------|
A|-2--------2-------------------------------|
E|------------------------------------------|

    Dm6
E|-------5----------------------------------|
B|-----6------------------------------------|
G|---4--------------------------------------|
D|------------------------------------------|
A|-5----------------------------------------|
E|------------------------------------------|

A7M
Não fale assim

Não faz bem pra nós
F#m
Pra que gritar se estamos a sós?
Bm                     E
Porque argumentar,sem razão?
A7M
O seu ciúme cansa nós dois
F#m
Pior que se arrepende depois
Bm                      E       E7
Não sei me imaginar sem você!
        A7M
Sempre quer saber por onde andei
        D7M
Quem me ligou, quem encontrei
          C#m         F#m
Quer minha hora exata de chegar
      Bm                      E
E fantasia coisas que eu nem sei
          D7M
Controle mais a sua emoção
           A7M
Dê mais respeito a nossa relação
         C#m            F#m 
E muito mais que não trair você
          Bm                 E
É não trair meu próprio coração
A7M
Eu vou gritar ao mundo
            D7M
Que eu sou teu de mais ninguém
          C#m         F#m
Quando acabam nossas brigas
         Bm                  E
O seu amor é o que me faz tão bem

         A7M                 D7M
E se não há motivos pra desconfiar assim
           C#m        F#m 
Isso são coisas de momento
          Bm     E              A7M
Nada que possa separar você de mim!
Composición de Bruno Cardoso / Sérgio Jr
Colaboración y revisión:
  • Arthur Salatiel
  • Cristiano ferreira
  • Cleyton Carvalho
86 vistas
    • ½ Tono
    • A
    • Bb
    • B
    • C
    • Db
    • D
    • Eb
    • E
    • F
    • F#
    • G
    • Ab
  • Agregar a la lista

    0 comentarios

    Ver todos los comentarios

    ¿Lograste tocar?

    3 Tocaron 0 Aún no

    ¡Graba un video tocando Coisa de Momento y envíanoslo!

    00:00 / 00:00
    Outros vídeos desta música
    Repetir Calidad Automático
    Outros vídeos desta música
    00:00 / 00:00
    Automático
    OK