Cifra Club

Grounded

Soul Asylum

Cifrado: Principal (guitarra y guitarra eléctrica)
tono: G
Intro:G C G C

Base Guitar(Dave Pirner)
|-3-3-0-0-0--------------------3-3-0-0-0-------------------------|
|-3-3-1-1-1--------------------3-3-1-1-1-------------------------|
|-0-0-0-0-0-0-2/4-2-0-0-----0--0-0-0-0-0-0-2/4-2-0-0-----0-------|
|-0-0-2-2-2--------------------0-0-2-2-2-------------------------|
|-2-2-3-3-3-------------3b4----2-2-3-3-3-------------3b4---------|
|-3-3--------------------------3-3-------------------------------|
  v v ^ ^ v                    v v ^ ^ v

Solo Guitar(Dan Murphy)
|----------------------------------------------|
|-12-10-8----8--8-7---12-13-(8)-----8-7-5-3-0--|
|----------9--------------------(9)------------|
|----------------------------------------------|
|----------------------------------------------|
|----------------------------------------------|

Dm C G G


Dm   Am          C      G
When eight turns sideways
Dm          C        G
You head on down the highway
Dm   Am     C   G
Say this is my way,
Am             G
disappearing forever              

Dm       Am          C   G
But there ain't just one way
Dm     C          G
So you choose the fun way
Dm    Am       C  G
Slide down the runway
   Am                 G
On a ticket that goes two ways


Chorus

    C                   Bb
And by the way that it sounded
C                          G
You thought that you'd be astounded
C                        D
But you left it like you found it
C                        G          (intro)
Cause it wasn't yours to take

Dm        Am          C G
What once seemed like dyin'
Dm          C    G
Soon turned into flyin'
Dm     Am         C  G
So you settle for tryin'
       Am             G
And you wish you were grounded

Chorus

C                      Bb
No you cannot get much higher
C                G
Than your utmost desire
C                       D
So you bring it down to size it
 C               G
|               |       /pause/
Now it seems that you are grounded

G      C     Dm
Grounded    
G      C     Dm
Grounded    
G      C     Dm
Grounded    
G      C     Dm
Grounded    

Interlude:

|------------10---10---10------------------|
|-10-11-10-8----8----8----8-5-6-5--6-5-3---|
|------------------------------------------|
|------------------------------------------|
|------------------------------------------|
|------------------------------------------|

G     G

Chorus

C                   Bb
By the way that it sounded
C                          G
You thought that you'd be astounded
C                        D
But you left it like you found it
C                         G
Now you find that you are grounded

Ending: Dm Am C G Dm Am G
00:00 / 00:00
Otros videos de esta canción
Repetir
Otros videos de esta canción
Composición de Dave Pirner
Colaboración y revisión:
  • Matthäus Engler
1 vistas
    • ½ Tono
    • A
    • Bb
    • B
    • C
    • Db
    • D
    • Eb
    • E
    • F
    • F#
    • G
    • Ab
  • Agregar a la lista

    0 comentarios

    Ver todos los comentarios
    00:00 / 00:00
    OK