Cifra Club

Arise Again Intro

SOULFLY

Cifrado: Principal (guitarra y guitarra eléctrica)
Selo Cifra Club: esta cifra foi revisada para atender aos critérios oficiais da nossa Equipe de Qualidade.
tono: G
I Couldn't Be Bothered Arranging It.But Thats All The Parts.

G#||----------------------------||
C#||----------------------------||
E ||-13-14-10-13-9-10-7-9-5-7-4-||
B ||----------------------------||
F#||-11-12-8--11-7-8--5-7-3-5-2-||
B ||----------------------------||

G#||---||
C#||---||
E ||-9-||
B ||---||
F#||-7-||
B ||---||

G#||---------------||       ||--------||
C#||---------------||x4 then||--------||
E ||---------------||this at||--------||
B ||-7777777777777-||end    ||----9-8-||
F#||-5555555555555-||       ||-5-7----||
B ||-0000000000000-||       ||--------||

G#||-------------------------------------||
C#||-------------------------------------||
E ||-------------------------------------||
B ||------------------8888888888888/77---||
F#||-0000000000008880-6666666666666/55-0-||
B ||-0000000000008880------------------0-||

G#||---------------------------------|
C#||---------------------------------|
E ||---------------------------------|
B ||---------------------------------|
F#||-5/7-7-7-7\5-5-5-5/8-8-8-8\5-5-5-|
B ||-5/7-7-7-7\5-5-5-5/8-8-8-8\5-5-5-|

Backing For Above
G#||-----------------|
C#||-----------------|
E ||-----------------|
B ||-----------------|
F#||----9-7-10-7-7h9-|
B ||-0-0-0-0--0-0----|

Backing For Solo
G#||---------|
C#||---------|
E ||---------|
B ||---------|
F#||-0-5-2-3-|
B ||-0-5-2-3-|
Or
G#||---------|
C#||---------|
E ||---------|
B ||---------|
F#||-0-7-3-5-|
B ||-0-7-3-5-|
Otros videos de esta canción
    762 exhibiciones
      • ½ Tono
      • A
      • Bb
      • B
      • C
      • Db
      • D
      • Eb
      • E
      • F
      • F#
      • G
      • Ab
    • Agregar a la lista

    Afinación de cifrado

    Afinador online

      OK