Cifra Club

Smoke On The Water

SOULFLY

Tab de bajo: Principal
Selo Cifra Club: esta cifra foi revisada para atender aos critérios oficiais da nossa Equipe de Qualidade.
tono: Afinación:
Guitar only first 3X
Then bass comes in:
G--------------------------|
D--------------------------|
A----0-2---0-3-2---0-2-0---|
E--2-----2-------2-------2-|

Verse:
G---------------|
D---------------| (2X)
A---------------|
E--0-0r-0-2-3-5-|

G----------------------|
D----------------------| (2X)
A----------------------|
E--0-0r-0-0-00-0-2-3-5-|

G----------------------|
D----------------------|(2X)
A----------------------|
E--0-000000000-0-2-3-5-|

G---------------|
D---------------|
A---------------|
E--5-5--5-3-2-0-|

Chorus (=same as intro)

Solo's:
G-----------------|
D-----------------|
A-----------------|
E--0-0000000000h2-| (repeat until you have to play the chorus)

I think these are al the parts of the song, I don't exactly know the order, but it 
be hard to figure that out... Have fun!
Otros videos de esta canción
    1.732 exhibiciones

    Afinación de cifrado

    Afinador online

    OK