Cifra Club

Beyond The Wheel

Soundgarden

Cifrado: Principal (guitarra y guitarra eléctrica)
Selo Cifra Club: esta cifra foi revisada para atender aos critérios oficiais da nossa Equipe de Qualidade.
tono: C
#



Date: Fri, 13 Dec 1996 20:44:24 -0500
From: F*

          Here's the Beyond the Wheel Tab, sent by me, Dave Nailling.


          Beyond the Wheel


          Dropped D Tuning (D, A, D, G, B, e)

          (Intro and verse part)

e-------------|I
B-------------|I
G-------------|I
D--0----(5)---|I
A--0----(5)---|I
D--0----(5)---|I

          NOTE:  The numbers in parenthesis are NOT fretted.  I think they're
tapped harmonics.  To get them to sound right, play the first three open
strings and lightly tap those same strings across the fith fret.  Play this a
lot during the intro and verse.

          (Chorus(?) part)

e-------------------------------------------------------|I
B-------------------------------------------------------|I
G-------------------------------------------------------|I
D--0----0----5----5-6---6-5---------6-5-3-0-3-5-6-5-----|I
A--0----0----5----5-6---6-5---------6-5-3-0-3-5-6-5-----|I
D--0----0----5----5-6---6-5---------6-5-3-0-3-5-6-5-----|I

           NOTE:  The last time this is played, do not play the last two
chords.  Go right into the Post chorus.

          (Post chorus)

e--------------------------|I
B--------------------------|I
G--------------------------|I
D--6----5----3--5--3--0----|I
A--6----5----3--5--3--0----|I
D--6----5----3--5--3--0----|I

          NOTE:  After playing the above three times, only play the first
three chords for the fourth time.  During the next verse, play the Chorus(?)
part.  For the verse after that, play the Chorus(?) part, but substitute the
second set of chords with a bunch of pick scrapes.  Then comes the
solo......Just play a D pentatonic, and strum behind the bridge if you can.
 As for the rhythm guitar, play the exact thing that was played under the
last verse mentioned above.  Finally, end the song with this:

          (Ending)

e--------------------|I
B--------------------|I
G--------------------|I
D--6------5------3---|I
A--6------5------3---|I
D--6------5------3---|I
Otros videos de esta canción
    1.035 exhibiciones
      • ½ Tono
      • A
      • Bb
      • B
      • C
      • Db
      • D
      • Eb
      • E
      • F
      • F#
      • G
      • Ab
    • Agregar a la lista

    Afinación de cifrado

    Afinador online

      OK