Cifra Club

Fell On Black Days

Soundgarden

Cifrado: Principal (guitarra y guitarra eléctrica)
Selo Cifra Club: esta cifra foi revisada para atender aos critérios oficiais da nossa Equipe de Qualidade.
tono: C
 

E|---------------------------------|  
B|---9--------4---------1-1-1-1----|   
G|---9--------4--2--0---0-0-0-0----|   
D|---9-----4br4--2--0---2-2-2-2----|  
A|---7-----2--2--2--0---3-3-3-3----|   
E|---------------------------------|  


E|---------------2-2-2-2-----------|
B|--4--4--4--4---3-3-3-3--1-1------|
G|--4--4--4--4---2-2-2-2--0-0------|
D|--4--2--4--2---0-0-0-0--2-2------|
A|--2--2--2--2------------3-3------|
E|---------------------------------|

Volte p/ o 1º riff 

"How would I know that this would be my fate”. 
E|----------------------------------------------------------|
B|--7--7-7--9----4-------1-1-1-1--9----4--------5--7-7--7-9-|
G|--7--7-7--9----4--2--0-0-0-0-0--9----4--2--0--5--7-7--7-9-|
D|--7--7-7--9-4br4--2--0-2-2-2-2--9-4br4--2--0--5--7-7--7-9-| 
A|--5--5-5--7-2--2--2--0-3-3-3-3--7-2--2--2--0--3--5-5--5-7-|
E|----------------------------------------------------------|

Solo: 

"hooooo”!!!
E|---------------------------------------------------------|
B|------5---9---10----12h13p12----12-15-13-12-12-12--------|
G|-----------------------------14-------------------14\sl--| 2x
D|--4------------------------------------------------------|
A|--2------------------------------------------------------|
E|---------------------------------------------------------|

Na terceira vez toque este:
E|-----------------------------------------------------------|
B|------5---9---10----12h13p12----12-15-13-12h13p12-12----12-|
G|-----------------------------14----------------------14----|
D|--4--------------------------------------------------------|
A|--2--------------------------------------------------------|
E|-----------------------------------------------------------|

E|--------------------------------------|
B|--12h13p12-12----15-15-13-12----12\sl-|
G|--------------14-------------14-------|
D|--------------------------------------|
A|--------------------------------------|
E|--------------------------------------|



Guitar 2: 
 
E|------------------------------------------------------------------------|
B|------------------------------------------------------------------------|
G|--9--------------------------9----------------------------9-------------|
D|--9----^9-(9)-7-0------------9----^9-(9)--7--0------------9--^9-(9)-7-0-|
A|--7----^9-(9)-7-0--7-7-7-7---7----^9-(9)--7--0--7-7-7-7---7--^9-(9)-7-0-|
E|----x--^7----------8-8-8-8-0---x--^7------------8-8-8-8-0--x--^7--------|


E|-------------------------------------------------|
B|-------------------------------------------0-----|
G|----------------9--------------------------0-----|
D|----------------9-------^9--(9)--7--0------x-----|
A|--7-7-7-7-------7-------^9--(9)--7--0--8---7-----|
E|--8-8-8-8-0----------x--^7-------------8---8-----|



E|---------------------------------------------------0--0------|
B|---------------------------------------------------0--0------|
G|-----------------------------------------7---------0--0------|
D|----9---9--9--9-----9-----9---(9)\7--7---7---------2--2------|
A|----7---7--7--7-----7-----9---(9)\7--7---5---------3--3------|
E|----7---7--7--7--x--7--x--7---(7)\5--5-----------------------|

 
Agora toque o riff de introdução durante o refrão "Cause I fell..."
 

LETRA:
Fell On Black Days 
Whatsoever I've feared has come to life
Whatsoever I've fought off became my life
Just when everyday seemed to greet me with a smile
Sunspots have faded
And now I'm doing time
Cause I fell on black days

Whomsoever I've cured I've sickened now
Whomsoever I've cradled I've put you down
I'm a search light soul they say
But I can't see it in the night
I'm only faking when I get it right
Cause I fell on black days
How would I know
That this could be my fate

So what you wanted to see good has made you blind
And what you wanted to be yours has made it mine
So don't you lock up something that you wanted to see fly
Hands are for shaking
No, not tying
No, not tying

I sure don't mind a change
But I fell on black days
How would I know
That this could be my fate
Otros videos de esta canción
    8.544 exhibiciones
      • ½ Tono
      • A
      • Bb
      • B
      • C
      • Db
      • D
      • Eb
      • E
      • F
      • F#
      • G
      • Ab
    • Agregar a la lista

    Afinação da cifra

    Afinador online

      Ops (: Contenido disponible solo en portugués.
      OK