Cifra Club

Outshined

Soundgarden

Cifrado: Principal (guitarra y guitarra eléctrica)
Selo Cifra Club: esta cifra foi revisada para atender aos critérios oficiais da nossa Equipe de Qualidade.
tono: G
Afinação: Drop D (D A D G B E)

   Intro / Versos:

 P.M.. .                                       

E|---------------------------------|
B|---------------------------------|
G|---------------------------------|
D|-----------------3~--------------|
A|---0-0-3-5-3-0-3----6-5-3/(10)---|
D|---0-0-3-5-3-0-3----6-5-3/(10)---|(3x)

E|-----------------------------|----------|
B|-----------------------------|----------|
G|-----------------------------|------5b7-|
D|-----------------5~----------|--5b------|
A|---0-0-3-5-3-0-3----6-5-3/---|----------|
D|---0-0-3-5-3-0-3----6-5-3/---|----------|

  Versos:

E|-----------------------------|   
B|-----------------------------|   
G|-----------------------------|   
D|-----------------5~----------|   
A|---0-0-3-5-3-0-3----6-5-3/---|   
D|---0-0-3-5-3-0-3----6-5-3/---|(8x)

E|------------------------------|   
B|------------------------------|   
G|------------------------------|   
D|-----------------5~--------0--|   
A|---0-0-3-5-3-0-3----6-5-3/-0--|   
D|---0-0-3-5-3-0-3----6-5-3/-0--|

  Pré-Refrão:
    D       G5    F#5+
E|-------------------------0-0-5-----|           x: Death Note
B|---7-7-x-x-7-----7-7-x-x-5-3-3-----|
G|---7-7-x-x-7-----7-7-x-x-----------|
D|---7-7-x-x-5-----4-4-x-x-----------|
A|---5-5-x-x-------------------------|
D|-----------------------------------|(2x)
      D       G5    F#5+
E|-------------------------0-0-5--5/7-7-7-7-------|
B|---7-7-x-x-7-----7-7-x-x-5-3-3------------------|
G|---7-7-x-x-7-----7-7-x-x--------2/4-4-4-4-------|
D|---7-7-x-x-5-----4-4-x-x-------------------0----|
A|---5-5-x-x---------------------------------0----|
D|-------------------------------------------0----|

  Refrão:
    
E|-----------------------------------------------------------------------|
B|-----------------------------------------------------------------------|
G|-----------------------------------------------------------------------|
D|--7-5-0-3-5-0--5-3-0-3--03-6-6-6-5-3-0---------------------------------|
A|--7-5-0-3-5-0--5-3-0-3--03-6-6-6-5-3-0---------------------------------|
D|--7-5-0-3-5-0--5-3-0-3--03-6-6-6-5-3-0--10-0-0-10-10-0-0-10-10-0-0-----|

E|---------------------------------------------------------------------|
B|---------------------------------------------------------------------|
G|---------------------------------------------------------------------|
D|--7-5-0-3-5-0--5-3-0-3--03-6-6-6-5-3-0-------------------------------|
A|--7-5-0-3-5-0--5-3-0-3--03-6-6-6-5-3-0-------------------------------|
D|--7-5-0-3-5-0--5-3-0-3--03-6-6-6-5-3-0--10-0-0-10-10-0-0-10-10-0-0---|

E|-----------------------------------------------------------|
B|-----------------------------------------------------------|
G|-----------------------------------------------------------|
D|------------------------------10-10--10-10--10-10--10-10---|
A|------------------------------10-10--10-10--10-10--10-10---|
D|--10-0-0-10-10-0-0-10-10-0-0--10-10--10-10--10-10--10-10---|
  Base do Solo:  

E|-----------------------------|   
B|-----------------------------|   
G|-----------------------------|   
D|-----------------5~----------|   
A|---0-0-3-5-3-0-3----6-5-3/---|   
D|---0-0-3-5-3-0-3----6-5-3/---|

  Solo:

E|------------|                                
B|--5b--------|                                 
G|--5b--------|                                 
D|-------7~---|                                 
A|------------|                                 
D|------------|                               


E|-----------------------------------------|
B|--5-7--7br-5-7-7-5-5---------------------|
G|--5-7--7br-5-7-7-5-5---------------------|
D|----------------------7-5-4-7-5p4--------|
A|----------------------------------5/3~---|
D|-----------------------------------------|

E|-------------------------10~---|
B|------------------8-9/10-------|
G|------------5-7/9--------------|
D|------4-5/7--------------------|
A|--3/5--------------------------|
D|-------------------------------|

E|--------------------------------------------------------------------|
B|--13b15r13--10h13p10------------------------------------------------|
G|---------------------12-10h12p10---10-12-12b14r12-10h12p10----10~---|
D|---------------------------------12------------------------12-------|
A|--------------------------------------------------------------------|
D|--------------------------------------------------------------------|
  
Frases Pós-Solo:

E|-----------------------------------------------------|
B|-----------------------------------------------------|
G|--------10-12-10----------------10-12-12b14r12-10~---|
D|--12-12----------12~~------12-12---------------------|
A|-----------------------------------------------------|
D|-----------------------------------------------------|

E|-----------------------------------------------------------------------------|
B|--------------------------------------------------------12-------10----------|
G|--------10-12-10----------------10-12-12b14r12--10-10/12----12/10---10-------|
D|--12-12----------12~~------12-12---------------------------------------12~---|
A|-----------------------------------------------------------------------------|
D|-----------------------------------------------------------------------------|

E|-----------------------------------------------------|
B|-----------------------------------------------------|
G|--------10-12-10----------------10-12-12b14r12-10~---|
D|--12-12----------12~~------12-12---------------------|
A|-----------------------------------------------------|
D|-----------------------------------------------------|(2x)

  Passagem:

E|------------------------------------------------|
B|---------------------------------------6-5-5----|
G|------------------------7-7-5-4--5-4-5-5-5-5----|
D|---7-7-5-4--5-4-7--5-4--5-5-5-5--5-5-5-5-5-5----|
A|---5-5-5-5--5-5-5--5-5--------------------------|
D|------------------------------------------------|(3x)

  Refrão Final:
  
E|-----------------------------------------------------------------------|
B|-----------------------------------------------------------------------|
G|-----------------------------------------------------------------------|
D|--7-5-0-3-5-0--5-3-0-3--03-6-6-6-5-3-0---------------------------------|
A|--7-5-0-3-5-0--5-3-0-3--03-6-6-6-5-3-0---------------------------------|
D|--7-5-0-3-5-0--5-3-0-3--03-6-6-6-5-3-0--10-0-0-10-10-0-0-10-10-0-0-----|

E|---------------------------------------------------------------------|
B|---------------------------------------------------------------------|
G|---------------------------------------------------------------------|
D|--7-5-0-3-5-0--5-3-0-3--03-6-6-6-5-3-0-------------------------------|
A|--7-5-0-3-5-0--5-3-0-3--03-6-6-6-5-3-0-------------------------------|
D|--7-5-0-3-5-0--5-3-0-3--03-6-6-6-5-3-0--10-0-0-10-10-0-0-10-10-0-0---|

E|-----------------------------------------------------------|
B|-----------------------------------------------------------|
G|-----------------------------------------------------------|
D|------------------------------10-10--10-10--10-10--10-10---|
A|------------------------------10-10--10-10--10-10--10-10---|
D|--10-0-0-10-10-0-0-10-10-0-0--10-10--10-10--10-10--10-10---|

E|-----------------------------------------------------|
B|-----------------------------------------------------|
G|-----------------------------------------------------|
D|--0h3-03-6-6-6-5-3-0---------------------------------|
A|--0h3-03-6-6-6-5-3-0---------------------------------|
D|--0h3-03-6-6-6-5-3-0--10-0-0-10-10-0-0-10-10-0-0-----|

E|---------------------------------------------------------------------|
B|---------------------------------------------------------------------|
G|---------------------------------------------------------------------|
D|--7-5-0-3-5-0--5-3-0-3--03-6-6-6-5-3-0-------------------------------|
A|--7-5-0-3-5-0--5-3-0-3--03-6-6-6-5-3-0-------------------------------|
D|--7-5-0-3-5-0--5-3-0-3--03-6-6-6-5-3-0--10-0-0-10-10-0-0-10-10-0-0---|

E|-----------------------------------------------------------|
B|-----------------------------------------------------------|
G|-----------------------------------------------------------|
D|------------------------------10-10--10-10--10-10--10-10---|
A|------------------------------10-10--10-10--10-10--10-10---|
D|--10-0-0-10-10-0-0-10-10-0-0--10-10--10-10--10-10--10-10---|


Letra:

 Outshined
(Chris Cornell)

I got up feeling so down
I got off being sold out
I've kept the movie rolling
But the story's getting old now
I just looked in the mirror
Things aren't looking so good
I'm looking California
And feeling Minnesota

So now you know, who gets mystified
Show me the power child, I'd like to say
That I'm down on my knees today
It gives me the butterflies, gives me away
Till I'm up on my feet again
I'm feeling outshined

Someone let the dogs out
They'll show you where the truth is
The grass is always greener
Where the dogs are shedding
I'm feeling that I'm sober
Even though I'm drinking
I can't get any lower
Still I feel I'm sinking

So now you know, who gets mystified
Show me the power child, I'd like to say
That I'm down on my knees today
It gives me the butterflies, gives me away
Till I'm up on my feet again
I'm feeling outshined
Otros videos de esta canción
    2.249 exhibiciones
      • ½ Tono
      • A
      • Bb
      • B
      • C
      • Db
      • D
      • Eb
      • E
      • F
      • F#
      • G
      • Ab
    • Agregar a la lista

    Afinação da cifra

    Afinador online

      Ops (: Contenido disponible solo en portugués.
      OK