Cifra Club

The day I tried to live

Soundgarden

Cifrado: Principal (guitarra y guitarra eléctrica)
Selo Cifra Club: esta cifra foi revisada para atender aos critérios oficiais da nossa Equipe de Qualidade.
tono: G
Intro: Guitar 1 (Slight Distortion)

E|-10-9-7-10\4-4-4/7-7---------------------------|
B|-----------------------------------------------|
G|-----------------------------------------------|
D|-----------------------------------------------|
A|-----------------------------------------------|
E|-----------------------------------------------|

Intro: Guitar 2 (Clear Tone)

Begin halfway through first cycle of guitar 1's riff.
Listen to the song to get the exact rhythm.

E|-10\4--7-9-9\7---------------------------------|
B|-----------------------------------------------|
G|-----------------------------------------------|
D|-----------------------------------------------|
A|-----------------------------------------------|
E|-----------------------------------------------|

after 2 cycles of guitar 1, do this instead:

E|-15\10--15\10-15\10-15\7-----------------------|
B|-----------------------------------------------|
G|-----------------------------------------------|
D|-----------------------------------------------|
A|-----------------------------------------------|
E|-----------------------------------------------|

Bass comes in here. This riff is doubled by one guitar
when the vocals start.

E|---------------------------------------------------|
B|---------------------------------------------------|
G|---------------------------------------------------|
D|---------------------------------------------------|
A|-7-7-7-7-7--7-6-5-4-3-3-3-3-3--3-2--0-0-0-0-0------|
E|----------------------------------------------0----|

Play the above riff until the vocal line before the
chorus, and then do:

E|-----------------------------7-6-4-4-4-4-4-----------------------|
B|-----------------------------7-6-4-4-4-4-4-----------------------|
G|-----------------------------8-7-5-5-5-5-5-----------------------|
D|-----------------------------9-8-6-6-6-6-6-----------------------|
A|-7-7-7-7-7-7-6-5-4-3-3-3-3-3-9-8-6-6-6-6-6-----------------------|
E|-----------------------------7-6-4-4-4-4-4-----------------------|
   (...and watch the rolling heads)


Now start playing bar chords on the twelfth fret,
loud and distorted.

E|-12-12-12-12-12--12-11-10-9--8--8--8--8--8-----|
B|-12-12-12-12-12--12-11-10-9--8--8--8--8--8-----|
G|-13-13-13-13-13--13-12-11-10-9--9--9--9--9-----|
D|-14-14-14-14-14--14-13-12-11-10-10-10-10-10----|
A|-14-14-14-14-14--14-13-12-11-10-10-10-10-10----|
E|-12-12-12-12-12--12-11-10-9--8--8--8--8--8-----|

E|-8--7-5-5-5-5-5------------------------------------|
B|-8--7-5-5-5-5-5------------------------------------|
G|-9--8-6-6-6-6-6------------------------------------|
D|-10-9-7-7-7-7-7------------------------------------|
A|-10-9-7-7-7-7-7------------------------------------|
E|-8--7-5-5-5-5-5------------------------------------|

Depending on which verse you are on, the above riff
will repeat either two or four times.

Now, guitar one will play this:

E|-10-9-7-10\4-4-4-6-6---10-9-7-10\5-5-5-7-7-----|
B|-----------------------------------------------|
G|-----------------------------------------------|
D|-----------------------------------------------|
A|-----------------------------------------------|
E|-----------------------------------------------|

And guitar two will play this, rather quietly:

E|-7-7-7-7-8--8--8--8--8--12-12-12-12------------|
B|-7-7-7-7-8--8--8--8--8--12-12-12-12------------|
G|-8-8-8-8-9--9--9--9--9--13-13-13-13------------|
D|-9-9-9-9-10-10-10-10-10-14-14-14-14------------|
A|-9-9-9-9-10-10-10-10-10-14-14-14-14------------|
E|-7-7-7-7-8--8--8--8--8--12-12-12-12------------|

E|-9--9--9--9--9---------------------------------|
B|-9--9--9--9--9---------------------------------|
G|-10-10-10-10-10--------------------------------|
D|-11-11-11-11-11--------------------------------|
A|-11-11-11-11-11--------------------------------|
E|-9--9--9--9--9---------------------------------|

Repeat twice (...one more time around might do it)


Then this little line, in the same style as the
one above (all the repeats of the first two
chords omitted for brevity):

            Guitar 1 joins here
          
E|-12--7--9--9--9--9--9----9--8--7-6-5-5-5-5-5-5-4-2-2-2-2-2-|
B|-12--7--9--9--9--9--9----9--8--7-6-5-5-5-5-5-5-4-2-2-2-2-2-|
G|-13--8--10-10-10-10-10---10-9--8-7-6-6-6-6-6-6-5-3-3-3-3-3-|
D|-14--9--11-11-11-11-11---11-10-9-8-7-7-7-7-7-7-6-4-4-4-4-4-|
A|-14--9--11-11-11-11-11---11-10-9-8-7-7-7-7-7-7-6-4-4-4-4-4-|
E|-12--7--9--9--9--9--9----9--8--7-6-5-5-5-5-5-5-4-2-2-2-2-2-|
Otros videos de esta canción
    1.277 exhibiciones
      • ½ Tono
      • A
      • Bb
      • B
      • C
      • Db
      • D
      • Eb
      • E
      • F
      • F#
      • G
      • Ab
    • Agregar a la lista

    Afinação da cifra

    Afinador online

      Ops (: Contenido disponible solo en portugués.
      OK