Cifra Club

Errare humanum est

Soziedad Alkoholika

Cifrado: Principal (guitarra y guitarra eléctrica)
tono: C
INTRO

1)

Guitarra 1
E|------------------------------------------------------------|
B|-------0------0-------------------------0----------0--------|
G|------------------------------------------------------------|
D|----4------4-------2-0-----2-0-------4-----4---4--------2-0-|
A|--2------0-------------0-2-----0---2---------0--------------|
E|-----------------3------------------------------------3-----|

E|---------------|
B|---------------|
G|---------------|
D|------2-0h2----|
A|--0-2-------0--|
E|---------------|

Guitarra 2
E|----------------------------|
B|----------------------------|
G|----------------------------|
D|----------------------------|
A|--9--7-7--9--7-7--7-7--7-7--|
E|--7--5-5--7--5-5--5-5--5-5--|

2)

Guitarra 1: Tocar lo mismo que Intro 1

Guitarra 2
E|------------------|
B|------------------|
G|------------------|
D|------------------|
A|--9-7-9--7-7--5---|
E|--7-5-7--5-5--3*--|


VERSO

1) (Que difícil es...)

Tocar lo mismo que la guitarra 1 en la Intro 1

2) (Es sólo una unidad...)

Tocar lo mismo que la guitarra 2 en Intro 2

3) (No es humillarse...)

Tocar esto tres veces ..........
E|--------------------------------| ¡-------------------------
B|--------------------------------| ¡-------------------------
G|--------------------------------| ¡-------------------------
D|--------------------------------| ¡-------------------------
A|--5--4-4-4-4-4--5-5-5-5-5-5-5-5-| ¡-5--4-4-4-4--5-5-5--7-7--
E|--3--2-2-2-2-2--3-3-3-3-3-3-3-3-| ¡-3--2-2-2-2--3-3-3--5-5--
                PM.............


CHORUS

1) (Los errores son...)

E|--------------------------------------------------------|
B|--------------------------------------------------------|
G|--------------------------------------------------------|
D|-------10-9--9-9--7-7--10-10-------10-9--9-9--7-7--3-3--|
A|--------8-7--7-7--5-5---8--8--------8-7--7-7--5-5--1-1--|
E|--0-0-------------------------0-0-----------------------|
  PM.                         PM.

2) (Y por qué obstinarte...)

E|----------------------------------|
B|----------------------------------|
G|----------------------------------|
D|--9-5-4---------9-5-4--7--7-7--9--|
A|--7-3-2----4-5--7-3-2--5--5-5--7--|
E|---------0-2-3--------------------|
         PM...


FINAL

1) (...brille la evidencia)

E|---------------------------------------------------------|
B|---------------------------------------------------------|
G|---------------------------------------------------------|
D|------5------4-----------------5------4------7-7-7-7--9--|
A|------3------2------4-5-2------3------2------5-5-5-5--7--|
E|--0*-----0*-----0*--2-3-0--0*-----0*-----0*--------------|
  PM     PM     PM         PM     PM     PM

2) (Oh ye)
                                     xxxxx
E|------------------------------------| ¡-----¡--
B|------------------------------------| ¡-----¡--
G|------------------------------------| ¡-----¡--
D|----------------8--8-8-8-8-8--7--7--| ¡-----¡--
A|--5--5-5-5-5-5--6--6-6-6-6-6--5--5*-| ¡-7-8-¡--
E|--3--3-3-3-3-3----------------------| ¡-5-6-¡--
     PM.......     PM.......     PM

La segunda vez que toques el riff en vez de tocar lo que po-
ne en la zona marcada con 'x' toca esto:

E|-------------------|
B|-------------------|
G|-------------------|
D|--10-10-10-10--12--|
A|---8--8--8--8--10--|
E|-------------------|

3) (...un error)

E|------------------------------------------------------------|
B|------------------------------------------------------------|
G|------------------------------------------------------------|
D|------------------------------------------------------------|
A|-----5-----5-----5---------5-----5-----7------5-----5-----5-|
E|--0--3--0--3--0--3--0---0--3--0--3--0--5---0--3--0--3--0--3-|
  PM.......................................................

E|---------|
B|---------|
G|---------|
D|---------|
A|----5----|
E|-0--3--0-|
 .......

E|------------------------------------------------------------|
B|------------------------------------------------------------|


Errare humanum est

Ké difícil es lograr mutxas veces tenerte
en equilibrio, caminando por la cuerda floja de la razón
porke a lo que induce el pensamiento
individual, es sólo una unidad de razón
que puede estar equivocada, o ser sólo
en parte verdad, ¿Por ké será tan complicado
entender, escutxar todas sus razones
y pararte a pensar con sinceridad?

No es humillarse el reconocer
que tú eras el que estaba equivocao
es demostrar que eres persona
y como tal siempre puedes fallar
los errores son humanos y algunos
humanos, son sólo un error.

Y por qué obstinarte en tu idea
si sabes ke no tienes la razón
cerrarte en banda y no admitirlo
aunque brille la evidencia.

Si tú no le buscas el remedio
pierdes el tiempo discutiendo
y tarde o temprano tu conciencia
remorderá tus entrañas y te hara sufrir.

Y la herida de la culpa se abrirá
y volverás a recordar el dolor
volverás a sentirte mal
contigo mismo y recordarás
que los errores son humanos
pero tú te sentirás un error
00:00 / 00:00
Otros videos de esta canción
Repetir
Otros videos de esta canción
Compositor no encontrado.
3 vistas
    • ½ Tono
    • A
    • Bb
    • B
    • C
    • Db
    • D
    • Eb
    • E
    • F
    • F#
    • G
    • Ab
  • Agregar a la lista

    0 comentarios

    Ver todos los comentarios

    ¿Lograste tocar?

    0 Tocaron 0 Aún no

    ¡Graba un video tocando Errare humanum est y envíanoslo!

    00:00 / 00:00
    OK