Cifra Club

Escapada

Soziedad Alkoholika

Cifrado: Principal (guitarra y guitarra eléctrica)
tono: D

NTRO
E|-------------------------|
B|-------------------------|
G|-------------------7-----|
D|-9-9---5-5---7-7---7--7--|
A|-9-9---5-5---7-7---5--7--|
E|-7-7---3-3---5-5------5--|

RIFF1 (Antes del solo)
E|----------------------------------|
B|----------------------------------|
G|----------------------------7-----|
D|-9-9-9-9--5-5-5-5--7-7-7-7--7--7--|
A|-9-9-9-9--5-5-5-5--7-7-7-7--5--7--|
E|-7-7-7-7--3-3-3-3--5-5-5-5-----5--|

RIFF2 (Antes de que empiece a cantar, dejando sonar cada acorde)
E|--------------|
B|--------------|
G|--------------|
D|--9--5--7-----|
A|--9--5--7-----|
E|--7--3--5-----|

RIFF3 (Parte rapida)
E|---------------------------------|
B|---------------------------------|
G|-----------------------7---7-----|
D|-9-9--9-5-5--5-7-7--7--7-7-7-7---|
A|-9-9--9-5-5--5-7-7--7--5-7-5-7---|
E|-7-7--7-3-3--3-5-5--5----5---5---|

LETRA
Voy a canarias, voy a por sol,
voy a canarias, que hay buen rollito y vacilon.
Necesito sentir otros aires,
necesito quitarme las tensiones,
olvidar de una vez que a la Sole
uno le queria dar con el mechero.

Voy a canarias, viva el mojo picon!
Voy a canarias, estoy mas contento que ni se!
Voy a canarias, viva la revolucion!
Voy a canarias, estoy mas contento que la hostia!
00:00 / 00:00
Otros videos de esta canción
Repetir
Otros videos de esta canción
Compositor no encontrado.
    • ½ Tono
    • A
    • Bb
    • B
    • C
    • Db
    • D
    • Eb
    • E
    • F
    • F#
    • G
    • Ab
  • Agregar a la lista

    0 comentarios

    Ver todos los comentarios

    ¿Lograste tocar?

    0 Tocaron 0 Aún no

    ¡Graba un video tocando Escapada y envíanoslo!

    00:00 / 00:00
    OK