Cifra Club

Feliz Falsedad

Soziedad Alkoholika

Cifrado: Principal (guitarra y guitarra eléctrica)
tono: Ebm
E|E|------------------------------------------------------------||

AFINACION

Normal (standar)

E|E|------------------------------------------------------------||


INTRO

1) (Otra vez llega...)

E|-------------------------|
B|-------------------------|
G|-------------------------|
D|----------------7--6-----|
A|--7---7----9----5--4--9--|
E|--5---5----7----------7--|

2) (¡AN, TWO, TD S, A U!)

E|---------------------------|
B|---------------------------|
G|---------------------------|
D|--------7---------7--------|
A|--5-7---5---5-7---5---5-7--|
E|--3-5-------3-5-------3-5--|


VERSO

1) (Es navidad en Jerusalen...)

E|--------------------------------|
B|--------------------------------|
G|--------------------------------|
D|-----------------7--6-----------|
A|--7----7----9----5--4--7---5-7--|
E|--5*---5*---7*---------5---3-5--|

2) (El gran negocio...)

Tocar varias veces
E|------------------| ¡----------------------------------
B|------------------| ¡----------------------------------
G|------------------| ¡----------------------------------
D|------------------| ¡-------------------7--6-----------
A|-------7-7-7------| ¡-9-----------------5--4--7---5-7--
E|--5-5--5-5-5--5-5-| ¡-7--7-7-7-7-7-7-7--------5---3-5--
  PM.............      PM...........

3) (¡Anda ya!)

Guitarra 1
E|-----------------------------------------|
B|-----------------------------------------|
G|-----------------------------------------|
D|-------------------------------7--6------|
A|--7---7---7---7----9---9---9---5--4--7---|
E|--5*--5*--5*--5*---7*--7*--7*--------5*--|
  PM      PM       PM      PM

Guitarra 2         (x2)
E|-----------------------| ¡---------------------------------
B|---------2-2--3p2h3--2-| ¡-10-10-10-10--9-9--7-7--9--9s10--
G|--2-2--4---------------| ¡---------------------------------
D|-----------------------| ¡---------------------------------
A|-----------------------| ¡---------------------------------
E|-----------------------| ¡---------------------------------


PD-C HORUS (¡Aparentar!)
                      xxxxxx
E|---------------------| ¡------¡--
B|---------------------| ¡------¡--
G|---------------------| ¡------¡--
D|--5--7----------3--5-| ¡----3-¡--
A|--3--5---5-5-5--1--3-| ¡-7--1-¡--
E|---------3-3-3-------| ¡-5----¡--

La segunda vez que toques este riff en vez de tocar lo que
pone en la zona marcada con 'x' toca esto:

E|------------------|
B|------------------|
G|------------------|
D|------------------|
A|--7-7-7-7--8-8-8--|
E|--5-5-5-5--6-6-6--|
  PM............


G  O

E|E|------------------------------------------------------------||
E|E|------------------------------------------------------------||
--5--5s7--9--9s10--10--9--3--3s5--9--9s10--12--10s9--9s7--7-
E|E|------------------------------------------------------------||
E|E|------------------------------------------------------------||
E|E|------------------------------------------------------------||

E|--------------------------|
B|--------------------------|
G|--7--7s10--10--9--3--3s5--|
D|--------------------------|
A|--------------------------|
E|--------------------------|


CHORUS (Por eso y más...)

E|------------------------------------|
B|------------------------------------|
G|------------------------------------|
D|--------------5--5-5-5-5------------|
A|--8--8-8-8-8--3--3-3-3-3--5--5---7--|
E|--6--6-6-6-6--------------3--3*--5--|
     PM.....     PM.....     PM


POST-CHORUS

1) (Millones de abetos...)

E|--------------------------------------|
B|--------------------------------------|
G|--------------------------------------|
D|--5-7---7----7----9----------7---5-7--|
A|--3-5---5*---5*---7*---5--4--5---3-5--|
E|-----------------------3--2-----------|

2) (Me da asco la nochevieja..)

E|E|------------------------------------------------------------||
E|E|------------------------------------------------------------||
E|E|------------------------------------------------------------||
--7---5-7--7---7--7---7-7-7--7-7-7--7---9-9-9--9-9-9--9-----
--5*--3-5--5*--5--5*--5-5-5--5-5-5--5*--7-7-7--7-7-7--7*--5-
----------------------------------------------------------3-
  PM       PM     PM                PM                PM

E|-----------|
B|-----------|
G|-----------|
D|----7------|
A|-4--5--7-8-|
E|-2-----5-6-|

E|E|------------------------------------------------------------||
E|E|------------------------------------------------------------||


FELIZ F LSEDAD

OTRA VEZ LLEGA A  NAVIDAD
A  GENTE EMANA FELICIDAD
TOC S SONRIEN B N PARAR
A QUIEN PD TENDEN ENGAÑAR
B  TOC  BG UE IGUAL... ¡ AN, TWO, TD S, A U!
ES NAVIDAD EN JERUSALEN
Y EN NAVIDAD MATAN TAMBIÉN
JESUCRISTO YA VA A NACER
KETE PILLE UN PALESTINO ¡CACHO MAMON!
Y TE CUELGUE DE UN PINO

EL GRAN NEGOCIO VA A COMENZAR
EL PDC IO POR A S NUBES ESTAN
TOC S COMO LOCOS A COMPRAR
TOC  SEA PORQUE ES NAVIDAD
Y HAY QUE APAD NTAR ¡ANDA YA!
TURRON UN PAVO Y CHAMPAN
ESO NO, NO NOS PUEDE F LTAR
AUNQUE MAÑANA NO HAYA PA COMER
TOC  SEA PORQUE ES NAVIDAD
Y HAY QUE APAD NTAR ¡APAD NTAR!

LOS POBD S NIÑOS SON MACHAKAOS
POR A  TELEVIB ON, POR E LES DE
ANUNCIOS (DE JUGUETES) EN LOS KEEL
CRIO G  O TIENE QUE APD TAR UN BOTON
Y PARA NADA CUENTA SU IMAGINACION

POR ESO Y MAS ¡ ME CAGO EN A  NAVIDAD!
PUTA NAVIDAD ¡ME CAGO EN A  PUTA NAVIDAD!
POR ESO Y MAS ¡ ME CAGO EN A  NAVIDAD!
PUTA NAVIDAD ¡ME CAGO EN A  PUTA NAVIDAD!

E LLONES DE ABETOS CORTAOS
POR UN ESTUPIDA TRADICION
QUE LUEGO ACABARAN TIRAOS
EN A  BASURA O EN CUALQUIER A O
LUCES POR TODA A  CIUDAD
PARA INTERTARA  DISFRAZAR
ANUNCIOS DE PAZ Y HERMANDAZ
QUE DESPUES DE NADA VALDRAN

ME DA ASKO A  NOCHEVIEJA
TOC S PUESTOS HASTA EL GORRO
DESAHOGAN SU FRUSTRACION
HOY TOC  ESTA PERE TIC 
A  METO MANO A ESTA CHICA
Y A ESTE LE METO UN SOPAPO
¡ QUE DIVERTIC  SOY!

POR ESO Y MAS ¡ME CAGO EN A  NAVIDAD!
PUTA NAVIDAD ¡ME CAGO EN A  PUTA NAVIDAD!
POR ESO Y MAS ¡ME CAGO EN A  NAVIDAD!
PUTA NAVIDAD ¡ME CAGO EN A  PUTA NAVIDAD!
POR ESO Y MUCHAS COSAS MAS
ME CAGO EN A  PUTA NAVIDAD
DE VERDAD QUE ASKO ME DA
TANTA HIPOCD BA , TANTA F LSEDAD
¡VENGA IDIOTAS A COMPRAR!
EL CONSUMO ES EL ESPIRITU DE A  NAVIDAD!
¡OS VAMOS A SACAR
HASTA A  MEDUA  ESPINAL!
¡FELIZ NAVIDAD... AEG UITOS!
00:00 / 00:00
Otros videos de esta canción
Repetir
Otros videos de esta canción
Compositor no encontrado.
6 vistas
    • ½ Tono
    • Am
    • Bbm
    • Bm
    • Cm
    • C#m
    • Dm
    • Ebm
    • Em
    • Fm
    • F#m
    • Gm
    • G#m
  • Agregar a la lista

    0 comentarios

    Ver todos los comentarios

    ¿Lograste tocar?

    0 Tocaron 0 Aún no

    ¡Graba un video tocando Feliz Falsedad y envíanoslo!

    00:00 / 00:00
    OK