Cifra Club

Peces Mutantes

Soziedad Alkoholika

Cifrado: Principal (guitarra y guitarra eléctrica)
tono: C
INTRO/VERSO

E|--------------------------------------|
B|--------------------------------------|
G|--------------------------------------|
D|---------------5----------------------|
A|--0-0--7--3-3--3--0-0--7--3-3--3s5p0--|
E|--0-0--7--3-3-----0-0--7--3-3--3s5p0--|


CHORUS
                            xxxxxxxxxxx
E|---------------------------| ¡-----------¡--
B|---------------------------| ¡-----------¡--
G|---------------------------| ¡-----------¡--
D|---------------------------| ¡-----------¡--
A|--3p0--0-0--3p0--0-0--3p0--| ¡-0--3--3p0-¡--
E|--3p0--0-0--3p0--0-0--3p0--| ¡-0--3--3p0-¡--
       PM.       PM.         PM

La segunda vez que toquéis el riff en vez de tocar lo que
pone en la zona marcada con 'x' tocad esto:

E|------------|
B|------------|
G|------------|
D|------------|
A|--5s6s5p0---|
E|--5s6s5p0---|

E|------------------------------------------------------------|
B|------------------------------------------------------------|


Peces mutantes

Pero mira como beben los peces en el río,
pero mira como beben los peces en el río,
beben y beben y vuelven a beber,
los peces en el río, no tienen más que hacer.
Los peces de mi barrio tienen muy mala cara,
me miran muy raro, no sé que les pasa,
esto que te comento, es cierto,
no es broma desde que les conozco no son la misma cosa,
no son los de antes!!

Antes bebian agua cristalina,
ahora beben mierda, cagada y orina,
se les podia ver por el agua nadando,
ahora se les ve más, tripa arriba flotando,
a los que sobreviven les crecen los dientes,
se estan conviertiendo en peligrosos rebeldes
se están poniendo amorfos, se vuelven enormes,
de tanto vertedero y residuos enormes
¡Ya están aquí!
¡Peces mutantes!
¡Ya están aquí!
Industrial carroñero ¡Preparate!
Tú, puto domingero ¡Preparate!
¡El río no es un vertedero!
¡El río no es un vertedero!

Pero mira como beben los peces en el río,
beben y beben y vuelven a beber,
y ahora para variar también quieren comer.
Sucio politiquero ¡Preparate!
Tú, puto domingero ¡Preparate!
¡El río no es un vertedero!
¡El río no es un vertedero!

Pero mira como beben los peces en el río,
beben y beben vuelven a beber,
y ahora para variar también quieren comer.
00:00 / 00:00
Otros videos de esta canción
Repetir
Otros videos de esta canción
Compositor no encontrado.
3 vistas
    • ½ Tono
    • A
    • Bb
    • B
    • C
    • Db
    • D
    • Eb
    • E
    • F
    • F#
    • G
    • Ab
  • Agregar a la lista

    0 comentarios

    Ver todos los comentarios

    ¿Lograste tocar?

    0 Tocaron 0 Aún no

    ¡Graba un video tocando Peces Mutantes y envíanoslo!

    00:00 / 00:00
    OK