Cifra Club

Highly Strung

Spandau Ballet

Cifrado: Principal (guitarra y guitarra eléctrica)
Selo Cifra Club: esta cifra foi revisada para atender aos critérios oficiais da nossa Equipe de Qualidade.
tono: C
E|---------------------------------------------------------------------------|
B|---------------------------------------------------------------------------|
G|------5-5h7---5-7-7/9-7--5454----------------------------------------------|
D|---5h7------5-5-7-5/7-5------5-2-------------------------------------------|
A|---------------------------------------------------------------------------|
E|---------------------------------------------------------------------------|

E|-----------------------------------------------------------------------------|
B|-----------------------------------------------------------------------------|
G|------5-5h7---5-7-7/9-7--5454--4/9-------------------------------------------|
D|---5h7------5-5-7-5/7-5------5-----------------------------------------------|
A|-----------------------------------------------------------------------------|
E|-----------------------------------------------------------------------------|
Otros videos de esta canción
    13 exhibiciones
      • ½ Tono
      • A
      • Bb
      • B
      • C
      • Db
      • D
      • Eb
      • E
      • F
      • F#
      • G
      • Ab
    • Agregar a la lista

    Afinación de cifrado

    Afinador online

      OK