Cifra Club

2 Become 1

Spice Girls

Cifrado: Principal (guitarra y guitarra eléctrica)
Selo Cifra Club: esta cifra foi revisada para atender aos critérios oficiais da nossa Equipe de Qualidade.
tono: G
[Intro] D#m  Db/F  F#  G#m
        D#m  C#  F#  C#

D#m7(9)             Db/F          F#7M                  G#m
Candle light and soul forever, a dream of you and me together
D#m        Db/F      F#         C#
Say you believe it, say you believe it
D#m7(9)             Db/F          F#7M                  G#m
Free your mind of doubt and danger, be for real don't be a stranger
D#m7(9)             Db/F          F#7M          C#
We can achieve it, we can achieve it

B                 A#m           G#m
Come a little bit closer baby, get it on
 C#
Get it on

B
Cause tonight

E|------9-----------|
B|--6\7-------------|
G|------------------|
D|------------------|
A|------------------|
E|------------------|

A#m
Is the night

E|----7/6-----------|
B|--------9---------|
G|------------------|
D|------------------|
A|------------------|
E|------------------|

     G#m         C#
When two become one

F#                       C#                 B
I need some love like I never needed love before
                 C#
(Wanna make love to ya baby)
F#                   C#                 B
I had a little love, now I'm back for more
                 C#
(Wanna make love to ya baby)
E               F#              A   B      F#
Set your spirit free, it's the only way to be

D#m               Db/F              F#              G#m
Silly games that you were playing, empty words we both were saying
D#m            Db/F     F#             C#
Let's work it out boy, let's work it out boy
D#m            Db/F          F#               G#m
Once again if we endeavour, love will bring us back together
D#m         C#        F#          C#
Take it or leave it, take it or leave it

B                      A#m           G#m
Are you as good as I remember baby, get it
     C#
On, get it on
B                A#m
Cause tonight is the night
     G#m         C#
When two become one

F#                       C#                 B
I need some love like I never needed love before
                 C#
(Wanna make love to ya baby)
F#                   C#                 B
I had a little love, now I'm back for more
                 C#
(Wanna make love to ya baby)
E               F#              A   B      F#
Set your spirit free, it's the only way to be

[Solo] D#m  C#  B
       D#m  C#  B

E|--6-7-9-7---6----------------------------|
B|---------------7----6-7-6----------------|
G|-------------------6-------8---6--6--8---|
D|-----------------------------------------|
A|-----------------------------------------|
E|-----------------------------------------|

E|-----------------------------------------|
B|-----------7-------6---------------------|
G|---6----6------------6--8-8-6-8----------|
D|----9----8----8-6------------------------|
A|-----------------------------------------|
E|-----------------------------------------|

E|-------------6-9-9\11--------------------|
B|------6-7-9------------------------------|
G|--6-8------------------------------------|
D|-----------------------------------------|
A|-----------------------------------------|
E|-----------------------------------------|

B               A#m          G#m
Be a little bit wiser baby, put it on, put it on
B
Cause tonight

E|------9-----------|
B|--6\7-------------|
G|------------------|
D|------------------|
A|------------------|
E|------------------|

A#m
Is the night

E|----7/6-----------|
B|--------9---------|
G|------------------|
D|------------------|
A|------------------|
E|------------------|

     G#m             C#
When two become o...ne

F#                       C#                 B
I need some love like I never needed love before
                 C#
(Wanna make love to ya baby)
F#                   C#                 B
I had a little love, now I'm back for more
                 C#
(Wanna make love to ya baby)
F#                       C#                 B
I need some love like I never needed love before
                 C#
(Wanna make love to ya baby)
F#                   C#                 B
I had a little love, now I'm back for more
                 C#
(Wanna make love to ya baby)
E               F#              A   B      F#   A  B   F#
Set your spirit free, it's the only way to be


         A   B      F#   A  B   F#
It's the only way to be
         A   B      F#   A  B   F#
It's the only way to be
Otros videos de esta canción
    2.273 exhibiciones
      • ½ Tono
      • A
      • Bb
      • B
      • C
      • Db
      • D
      • Eb
      • E
      • F
      • F#
      • G
      • Ab
    • Agregar a la lista

    Afinação da cifra

    Afinador online

      Ops (: Contenido disponible solo en portugués.
      OK